Song name
# A B C D E F G H I J K L M N O P Q R S T U V W X Y Z

Sars - Lutka tab

-------------------------------------------------------------------------------
                             LUTKA - S.A.R.S.
-------------------------------------------------------------------------------
Tabbed by:mashaa94
E-mail:mashaa94@yahoo.com

Tuning: D Dmaj7 Hm A Em F#m G A 
    
e|-----2------2--------------------------------------------------------------|
B|-----3------2------3------2---------------------------2--------------------|
G|---2------2--------4------2------0------2------0------2--------------------|
D|-0---------------4------2--------2------4------0----2----------------------|
A|--------0------2------0--------2------4------2----0------------------------|
E|-----------------------------0------2------3-------------------------------|
Ref.
e|-----2---------------------------------------------------------------------|
B|-----3------2------3------2---------------------------2--------------------|
G|---2--------2------4------2------0------2------0------2--------------------|
D|-0--------2------4------2--------2------4------0----2----------------------|
A|--------0------2------0--------2------4------2----0------------------------|
E|-----------------------------0------2------3-------------------------------|




************************************

| /   slide up
| \   slide down
| h   hammer-on
| p   pull-off
| ~   vibrato
| +   harmonic
| x   Mute note
| b   Bend
| pb  Pre-bend
| br  Bend release
| pbr Pre-bend release
| brb Bend release bend

************************************
Tap to rate this tab
# A B C D E F G H I J K L M N O P Q R S T U V W X Y Z