Song name
# A B C D E F G H I J K L M N O P Q R S T U V W X Y Z

Sascha Funke - Chemin Des Figons tab

CHEMIN DES FIGONS - GUITAR PART
Album: Mango
(written and produced by Sascha Funke) (guitar played by Tim Tim)
Bpitch Control

---------------------------|
---------------------------|
---------------------------|
---------------------------|
-----3-----3-----3-----3---|
-4-4---4-4---4-4---4-4---4-|


--------------------------|
--------------------------|
--------------------------|
--------------------------|
----6-----6-----6-----6---|
3-3---3-3---3-3---3-3---3-|


---------------------------|
---------------------------|
---------------------------|
---------------------------|
-----6-----6-----6-----6---|
-4-4---4-4---4-4---4-4---4-|


---------------------------|
---------------------------|
---------------------------|
---------------------------|
-----8-----8-----8-----8---|
-6-6---6-6---6-6---6-6---6-|

Sascha Funke Website - http://www.bpitchcontrol.de/artist/4/107
Tap to rate this tab
 
# A B C D E F G H I J K L M N O P Q R S T U V W X Y Z