Song name
# A B C D E F G H I J K L M N O P Q R S T U V W X Y Z

Sash - Equador tab

A lovely melody :)! soo.. enjoy dudes !

e-6-----.    -9-8-9-8---6---. -9-8-9-8---9---. -13-11-13-11---9---|
H---6---.    ---------9---6-. ---------9---9-. -------------9---9-|
G-------.    ---------------. ---------------. -------------------|
D-------.    ---------------. ---------------. -------------------|
A-------.    ---------------. ---------------. -------------------|
E-------.    ---------------. ---------------. -------------------|

e-9-8-9-8---6---.
H---------9---6-.
G---------------.
D---------------.
A---------------.
E---------------.

This riff continues through almost the whole song.

There is another riff to.. goes like this:

e-12-12-12-14-14-14-12-12-12-14-14-14-16-12-12-12-14-14-14-12-12-12-11-12-11-|
H----------------------------------------------------------------------------|
G----------------------------------------------------------------------------|
D----------------------------------------------------------------------------|
A----------------------------------------------------------------------------|
E----------------------------------------------------------------------------|

Have fun :) Martin D - DK!
Tap to rate this tab
 
# A B C D E F G H I J K L M N O P Q R S T U V W X Y Z