Song name
# A B C D E F G H I J K L M N O P Q R S T U V W X Y Z

Sass Jordan - So Hard tab

Sass Jordan - So Hard
Half Step Down Tuning - (Eb, Ab, Db, Gb, Bb, Eb)
There are no guarantees that this is 100% correct, but it sounds right.

Eb||---5--5--5--x--4--4--4--4----|-x-x--5--5--5--x--4--4--4--4----|
Bb||---5--5--5--x--5--5--5--5----|-x-x--5--5--5--x--5--5--5--5----|
Gb||---4--4--4--x--4--4--4--4----|-x-x--4--4--4--x--4--4--4--4----|
Db||-----------------------------|--------------------------------|
Ab||-----------------------------|--------------------------------|
Eb||-----------------------------|--------------------------------|


Eb||---2--2--2--x--0--0--0--0----|-x-x--2--2--2--x--0--0--0--0----|
Bb||---3--3--3--x--2--2--2--2----|-x-x--3--3--3--x--2--2--2--2----|
Gb||---2--2--2--x--2--2--2--2----|-x-x--2--2--2--x--2--2--2--2----|
Db||-----------------------------|--------------------------------|
Ab||-----------------------------|--------------------------------|
Eb||-----------------------------|--------------------------------|

Repeat this 5 times

Tap to rate this tab
# A B C D E F G H I J K L M N O P Q R S T U V W X Y Z