Song name
# A B C D E F G H I J K L M N O P Q R S T U V W X Y Z

Satanic Slaughter - One Night In Hell tab

Song: One Night In Hell
Band: Satanic Slaughter
Album: Banished To The Underworld
Tabbed By Dave Siddons (farmer_siddons@hotmail.com)
Tuning: D Standard

Intro
|---------------------------|
|---------------------------|
|---------------------------|
|---------------------------|
|-2-2-2-2-3---2-2-2-2-3-5-3-|
|-0-0-0-0-1---0-0-0-0-1-3-1-|


Verse/Solo
|---------------------------------|
|---------------------------------|
|---------------------------------|
|-9-9-9-9-9-9-9-9-5-5-5-5-7-7-7-7-|
|-7-7-7-7-7-7-7-7-3-3-3-3-5-5-5-5-|
|---------------------------------|

Chorus
|---------------------|
|---------------------|
|---------------------|
|-9----5--------------|
|-7----3----5----7----|
|-----------3----5----|

Solo 2
|-----------------------------------------|
|-----------------------------------------|
|-----------------------------------------|
|-11-11-11-11-11-11-11-11-7-7-7-7-9-9-9-9-|
|-9--9--9--9--9--9--9--9--5-5-5-5-7-7-7-7-|
|-----------------------------------------|
Tap to rate this tab
# A B C D E F G H I J K L M N O P Q R S T U V W X Y Z