Song name
# A B C D E F G H I J K L M N O P Q R S T U V W X Y Z

Satanic Slaughter - Bringers Of Armaggedon tab

Song: Bringers Of Armageddon
Band: Satanic Slaughter
Album: Banished To The Underworld
Tabbed By Dave Siddons (farmer_siddons@hotmail.com)
Tuning: D Standard

Riff A
|---------------------------------------------------------------------------------|
|---------------------------------------------------------------------------------|
|---------------------------------------------------------------------------------|
|---------------------------------------------------------------------------------|
|-9-9-9-9-9-9-9-9-10-10-10-10-10-10-10-10-9-9-9-9-9-9-9-9-10-10-12-12-13-13-12-12-|
|-7-7-7-7-7-7-7-7--8--8--8--8--8--8--8--8-7-7-7-7-7-7-7-7--8--8-10-10-11-11-10-10-|

Riff B
|---------------------------------------------------------------------------------|
|---------------------------------------------------------------------------------|
|---------------------------------------------------------------------------------|
|---------------------------------------------------------------------------------|
|-9-9-9-9-9-9-9-9-10-10-10-10-10-10-10-10-9-9-9-9-9-9-9-9-10-10-12-12-13-13-12-12-|
|---------------------------------------------------------------------------------|

Riff C
|-----------------------------------------------------------------|
|-----------------------------------------------------------------|
|-----------------------------------------------------------------|
|-7-7-7-7-7-7-7-7-5-5-5-5-8-8-8-8-9-9-9-9-9-9-9-9-8-8-8-8-8-8-7-7-|
|-5-5-5-5-5-5-5-5-3-3-3-3-6-6-6-6-7-7-7-7-7-7-7-7-8-8-8-8-8-8-5-5-|
|-----------------------------------------------------------------|

Outro
|-----------------------------------------------------------------|
|-----------------------------------------------------------------|
|-----------------------------------------------------------------|
|-7-7-7-7-7-7-6-6-7-7-7-7-7-7-8-8-7-7-7-7-7-7-6-6-7-7-------------|
|-5-5-5-5-5-5-4-4-5-5-5-5-5-5-6-6-5-5-5-5-5-5-4-4-5-5-6-6-5-5-5-5-|
|-----------------------------------------------------4-4-3-3-3-3-|
Tap to rate this tab
# A B C D E F G H I J K L M N O P Q R S T U V W X Y Z