Guitaretab - guitar tabs
Song name
# A B C D E F G H I J K L M N O P Q R S T U V W X Y Z

Satanic Surfers - Dont Fade Away tab

Satanic Surfers - Don't Fade Away


Intro(clean) 2 times 
e|--------------------------------| 
b|-11--------4--------------------| 
g|-10--------3-----------------3--| 
d|-12--------5--------3--------3--| 
a|-10--------3--------3--------1--| 
E|--------------------1-----------| 

(dist, get the Rhythm on your own) 2 times 
e|--------------------| 
b|--------------------| 
g|--------8-----7-8---| 
d|--5-----8-...-7-8-8-| 
a|--5-...-6-----5-6-8-| 
E|--3---------------6-| 

-Verse- 

G5 D#5 
Altough weŽve had our differences of opinion through the years 

A#5 F5 F5 D#5 
I cannot deny what im feeling in here 

G5 D#5 
There are feelings i can hide within me and feelings that i can`t conceal 

A#5 F5 F5 
Like the ones that are bringing on this tears 
[ Tab from: http://www.guitaretab.com/s/satanic-surfers/121935.html ]
-Chorus- 

D#5 A#5 G5 D#5 F5 D#5 (C5?)A#5 G5 
Sometimes I think that iŽll never get to know you well enough 

G5 ??????????????????????????? A#5 
Never understand why you did that things you did 

F5 G5 F5 
Although Im part of you and youŽre part of me too 

F5 G5 
I just wanted you to understand that Im not an echo of your life 

A#5 F5 
I just wanted you to understand that Im not an echo of your life 

A#5 D#5 
I donŽt ever want to forget the sound of your voice or the smile on your face 

F5 A#5 
I donŽt want to the image of you to fade away 

A#5 D#5 F5 
I know weŽre running out of time, donŽt think i ever said "i love you" 

A#5 
This is my way of saying I do 

-Solo- 

F5 ???? 


-Outro- 

F5 G5 A#5 

Corrections... running@punkhardcore.com
Related for Dont Fade Away tab
Advertisement will be closed in 10 seconds