Song name
# A B C D E F G H I J K L M N O P Q R S T U V W X Y Z

Satanic Surfers - Puppet tab

------------------------------------------------------------------------------- 
PUPPET - Satanic Surfers 
------------------------------------------------------------------------------- 

By: nO nAME 

INTRO: 

GUITAR1: D 

GUITAR2: Aii 

BOTH: 

RIFF1: 
E |----------------------------------------------------------------- 
B |----------------------------------------------------------------- 
G |---------------10----7--7--x---10--7----------------------------- 
D |---------------------7--7--x----------10--7--6-----3--3--3--3---- 
A |-----3--5------------5--5--x-----------------------3--3--3--3---- 
E |--5------------------------------------------------1--1--1--1---- 

(Repeat (x2)) 
E |-------------------------- 
B |-------------------------- 
G |---------------10----7---- 
D |---------------------7---- 
A |------3--5-----------5---- 
E |--5----------------------- 

F-D, F-D, F-D, F 
F, G, A 

VERSE: 

Fii-Eii-C-D 

Fii-C-A#, A, C 

D, C, A#, A (x2) 

D, Eii 

F-D, F-D, F-D, F 

F, G, A 

REF: 

D, Fii, C, A# (x6) 
D 

(Bass riff:) 

Fii 

(Bass riff:) 

Fii 
C, A#-C 
D, Fii, C, A#-C 

VERSE: (A little bit shorter:) 

-------------------------------------------------------------------------------
Tap to rate this tab
# A B C D E F G H I J K L M N O P Q R S T U V W X Y Z