Song name
# A B C D E F G H I J K L M N O P Q R S T U V W X Y Z

Satanic Surfers - Better Off Today tab

Help us improve GuitareTab! Take a short survey!
------------------------------------------------------------------------------- 
BETTER OFF TODAY - Satanic Surfers 
------------------------------------------------------------------------------- 

Intro: 
e-|-------------------------------------|---| 
B-|-------------------------------------|---| 
G-|-------------------------------------|---| 
D-|-4-4-4-------------9-9-9-------------|---| 
A-|-2-2-2-7-6-6-4-4-4-7-7-7-6-6-6-7-7-7-|-2-| 
E-|-------5-4-4-2-2-2-------4-4-4-5-5-5-|-0-| 

Verse: 
e-|-----------------------------------------------------------------| 
B-|-----------------------------------------------------------------| 
G-|-----------------------------------------------------------------| 
D-|-9-9-9-9-9-9-9-9-----------------6-6-6-6-6-6-6-6-----------------| 
A-|-7-7-7-7-7-7-7-7-9-9-9-9-9-9-9-9-4-4-4-4-4-4-4-4-4-4-4-4-7-7-7-7-| 
E-|-----------------7-7-7-7-7-7-7-7-----------------2-2-2-2-5-5-5-5-| 

Chorus: 
e-|---------------------------| 
B-|---------------------------| 
G-|---------------------------| 
D-|---------6-6-6-6---------4-| 
A-|-2-2-2-2-4-4-4-4-7-7-6-4-2-| 
E-|-0-0-0-0---------5-5-4-2---| 

Bridge: 
e-|-----------------------------------------------------------------| 
B-|-----------------------------------------------------------------| 
G-|-----------------------------------------------------------------| 
D-|-9-9-9-9-8-8-8-8-6-6-6-6-----------------------------------------| 
A-|-7-7-7-7-6-6-6-6-4-4-4-4-9-9-9-9-7-7-7-7-6-6-6-6-7-7-7-7-9-9-9-9-| 
E-|-------------------------7-7-7-7-5-5-5-5-4-4-4-4-5-5-5-5-7-7-7-7-| 

Solo: 
e-|---------------------------------------------9------------------| 
B-|-------------------------------------------9---12-10-9-10-12----| 
G-|------------------------------------8-9-11--------------------9-| 
D-|-11-9-9-9-9-11-9-9-9-9-7-6-6-7-9-11-----------------------------| 
A-|----------------------------------------------------------------| 
E-|----------------------------------------------------------------| 

Mellow part: 
e-|----------0--4--5--7--12-| 
B-|----------0--4--5--7--12-| 
G-|-6--2--4-----------------| 
D-|-6--2--4-----------------| 
A-|-4--0--2-----------------| 
E-|-------------------------| 

Outro: 
e-|-------------------------------------------------------------| 
B-|-------------------------------------------------------------| 
G-|-------------------------------------------------------------| 
D-|-------------------------1-1-1-------------------------1-1-1-| 
A-|-2h3-2h3-2h3-2h3-2h3-2h3-1-1-1-2h3-2h3-2h3-2h3-2h3-2h3-1-1-1-| 
E-|-2h3-2h3-2h3-2h3-2h3-2h3-------2h3-2h3-2h3-2h3-2h3-2h3-------| 

e-|----------------------------------------------------------------------| 
B-|----------------------------------------------------------------------| 
G-|----------------------------------------------------------------------| 
D-|-------------------------1-1-1-------------------------1-1-1----------| 
A-|-2h3-2h3-2h3-2h3-2h3-2h3-1-1-1-2h3-2h3-2h3-2h3-2h3-2h3-1-1-1-3-3-3--2-| 
E-|-2h3-2h3-2h3-2h3-2h3-2h3-------2h3-2h3-2h3-2h3-2h3-2h3-------1-1-1--0-| 

-------------------------------------------------------------------------------
Related for Better Off Today tab