Song name
# A B C D E F G H I J K L M N O P Q R S T U V W X Y Z

Satanic Surfers - Killing Me tab

------------------------------------------------------------------------------- 
KILLING ME - SATANIC SURFERS 
------------------------------------------------------------------------------- 

By: Xavier Gréau 

Intro: x8 
--0-0-0--3-3-3-----
--0-0-0--2-2-2-----
--0-0-0--3-3-3-----
--2-2-2--0-0-0----- 
--2-2-2------------
--0-0-0------------

Verse: (keep repeating ‘til the chorus) 
--0-0-0--3-3-3--3-3-3--0-0-0------------------------------ 
--0-0-0--2-2-2--0-0-0--1-1-1------------------------------ 
--0-0-0--3-3-3--0-0-0--0-0-0------------------------------ 
--2-2-2--0-0-0--0-0-0--2-2-2------------------------------ 
--2-2-2---------2-2-2--3-3-3------------------------------ 
--0-0-0---------3-3-3-------------------------------------

Chorus: x3 
--0-0-0--3-3-3----- 
--0-0-0--2-2-2----- 
--0-0-0--3-3-3----- 
--2-2-2--0-0-0-----
--2-2-2------------ 
--0-0-0------------

End Riff: 
--0-0-0--3-3-3--3-3-3----- 
--0-0-0--2-2-2--0-0-0----- 
--0-0-0--3-3-3--0-0-0----- 
--2-2-2--0-0-0--0-0-0----- 
--2-2-2---------2-2-2----- 
--0-0-0---------3-3-3----- 

-------------------------------------------------------------------------------
Tap to rate this tab
# A B C D E F G H I J K L M N O P Q R S T U V W X Y Z