Guitaretab - guitar tabs
Song name
# A B C D E F G H I J K L M N O P Q R S T U V W X Y Z

Satanic Surfers - Nun tab

------------------------------------------------------------------------------- 
NUN - Satanic SurferS 
------------------------------------------------------------------------------- 

By: W|{O}|RM punkins@total.net 

Intro: 

Dm, Am x3 
Dm 

Verse1: 
Dm, Am x4 
G A G C G - F - G x 2 
e- - - - - - - - - - - - - - - - - - - - - - - - - - 
B- - - - - - - - - - - - - - - - - - - - - - - - - - 
G- - - - - - - - - - - - - - -5- - - - - - - - - - - 
D- -5 - - - 7- - - - 5 - - - -5 - - - -5 - 3- -5 - - 
A- -5 - - - 7 - - - -5 - - - -3 - - - -5 - 3 - 5 - - 
E- -3 - - - 5- - - - 3- - - - - - - - -3 - 1 - 3 - - 

RIFF1: 
D A F C G - F - G x 2 
e|- - - - - - - - - - - - - - - - - - - - - - - - | 
B|- - - - - - - - - - - - - - - - - - - - - - - - | 
G|- -7- - - - - - - - - - - -5- - - - - - - - - - | 
D|- -7- - - 7- - - -5 - - - -5 - - - -5 - 3- -5- -| 
A|- -5- - - 7- - - -5 - - - -3 - - - -5 - 3- -5- -| 
E|- - - - - 5- - - -3- - - - - - - - -3 - 1- -3- -| 

Verse2: 
D A F C x 2 
e|- - - - - - - - - - - - - - - - -| 
B|- - - - - - - - - - - - - - - - -| 
G|- -7- - - - - - - - - -5 - - - - | 
D|- -7- - -7- - -3- - - -5 - - - - | 
A|- -5 - - 7- - -3- - - -3 - - - - | 
E|- - - - -5- - -1- - - - - - - - -| 

F G 
e|- - - - - - - - | 
B|- - - - - - - - | 
G|- - - - - - - --| 
D|- 3- - - 5- - - | 
A|- 3 - - -5 - - -| 
E- -1- - - 3- - --| 

CHORUS1: 
C F G x 6 G - F - G 
e|- - - - - - - - - - - - -| |- - - - - - - - - - - - | 
B|- - - - - - - - - - - - -| |- - - - - - - - - - - - | 
G|- -5 - - - - - - - - - - | |- - - - - - - - - - - - | 
D|- -5- - -3- - - -5 - - - | |- -5 - - -3 -- 5- - - - | 
A|- -3 - - 3 - - - 5 - - - | |- -5- - --3 - -5 - - - -| 
E|- - - - -1- - - -3 - - - | |- -3 - - 1- - 3- - - - -| 

RIFF1: 
D A F C G - F - G x 2 
e|- - - - - - - - - - - - - - - - - - - - - - - - - -| 
B|- - - - - - - - - - - - - - - - - - - - - - - - - -| 
G|- -7- - - - - - - - - - - - -5- - - - - - - - - - -| 
D|- -7 - - - 7- - - - 5 - - - -5 - - - -5 - 3- -5 - -| 
A|- -5 - - - 7 - - - -5 - - - -3 - - - -5 - 3 - 5 - -| 
E|- - - - - -5- - - - 3- - - - - - - - -3 - -1 - 3- -| 
[ Tab from: http://www.guitaretab.com/s/satanic-surfers/33815.html ]
Verse2: 
D A F C x 2 
e|- - - - - - - - - - - - - - - - - - - -| 
B|- - - - - - - - - - - - - - - - - - - -| 
G|- -7 - - - - - - - - - - -5 - - - - - -| 
D|- -7- - -7- - - -3 - - - -5 - - - - - -| 
A|- -5 - - 7 - - - 3 - - - -3 - - - - - -| 
E|- - - - -5- - - -1- - - - - - - - - - -| 

CHORUS2: 
C F G x 6 G - F - G x 3 
e|- - - - - - - - - - - - | |- - - - - - - - - - - | 
B|- - - - - - - - - - - - | |- - - - - - - - - - - | 
G|- -5 - - - - - - - - - -| |- - - - - - - - - - - | 
D|- -5- - -3- - - -5 - - -| |- 5 - - -3 - -5- - - -| 
A|- -3 - - 3 - - - 5 - - -| | -5- - - 3 - -5 - - - | 
E|- - - - -1- - - -3 - - -| |- 3 - - -1- - 3- - - -| 

RIFF2: 
-GUITAR1: 
D A F G 
e|- - - - - - - - - - - - - - - - - - - -| 
B|- - - - - - - - - - - - - - - - - - - -| 
G|- -7 - - - - - - - - - - - - - - - - - | 
D|- -7- - -7- - - -3 - - - -5 - - - - - -| 
A|- -5 - - 7 - - - 3 - - - -5 - - - - - -| 
E|- - - - -5- - - -1- - - - 3- - - - - - | 

-GUITAR2: 
X X A - B - C F G 
e|- - - - - - - - - - - - - - - - - - - - - - - - -| 
B|- - - - - - - - - - - - - - - - - - - - - - - - -| 
G|- - - - - - - - - - - - 4- -5 - - - - - - - - - -| 
D|- - - - - - - - - 7- - -4 - 5 - - - 3- - 5- - - -| 
A|- - - - - - - - - 7- - 2 - 3 - - - 3- - 5 - - - -| 
E|- - - - - - - - - 5- - - - - - - - -1 - -3 - - --| 

SOLO: 
D A A - B - C F G x 4 
e|- - - - - - - - - - - - - - - - - - - - - - - - --| 
B|- - - - - - - - - - - - - - - - - - - - - - - - --| 
G|- - 7- - - - - - - - - 4 - - 5- - - - - - - - - - | 
D|- - 7- - - 7- - - 7- - 4- - -5 - - 3- - - -5 - - -| 
A|- - 5- - - 7 - - -7- - 2- - -3- - -3 - - - 5 - - -| 
E|- - - - - -5- - - 5 - - - - - - - -1- - - -3 - - -| 

BRIDGE: 
F C G A F C G G x 4 
e|- - - - - - - - - - - - - - - - - - - - - - - - -| 
B|- - - - - - - - - - - - - - - - - - - - - - - - -| 
G|- - - - 5 - - - - - - - - - - - -5 - - - - - - --| 
D|- 3 - - 5- - - - 5- - 7- - 3 - - 5 - - 5 - - 5- -| 
A|- 3 - - 3- - - - 5- - 7 - -3 - - 3- - -5 - - 5- -| 
E|- 1- - - - - - - 3 - -5 - -1 - - - - - 3 - - 3- -| 

OUTRO: 
F G A x 4 G - G - A 
e|- - - - - - - - - - - - - - - -| e- - - - - - - - - - - - - 
B|- - - - - - - - - - - - - - - -| B- - - - - - - - - - - - - 
G|- - - - - - - - - - - - - - - -| G- - - - - - - - - - - - - 
D|- 3 - - - -5 - - - - 7- - - - -| D- - -5 - -5 - - 7- - - -- 
A|- 3 - - - -5- - - - -7 - - - --| A- - -5- - 5- - -7 - - - - 
E|- 1- - - - 3- - - - -5 - - - - | E- - -3- - 3- - -5 - - - - 

-------------------------------------------------------------------------------
Related for Nun tab
Nun chords by Satanic Surfers