Song name
# A B C D E F G H I J K L M N O P Q R S T U V W X Y Z

Satanic Surfers - The Sing Along Summer Song tab

Help us improve GuitareTab! Take a short survey!
------------------------------------------------------------------------------- 
The Sing Along Summer Song - Satanic Surfers 
------------------------------------------------------------------------------- 

By:cerostar@hotmail.com 

Intro: play it 2 times 
e|---------------------------------------------------------------------------| 
B|---------------------------------------------------------------------------| 
G|-4--666--44------------99-999-999-999-8-6-4--9-8-6-4-----------------------| 
D|-x--xxx--xx-rest---X2--xx-xxx-xxx-xxx-x-x-x--x-x-x-x-----------------------| 
A|-2--444--22------------77-777-777-777-6-4-2--7-6-4-2-----------------------| 
E|---------------------------------------------------------------------------| 

Verse: 
e|---------------------------------------------------------------------------| 
B|---------------------------------------------------------------------------| 
G|-------------2-22222222-2--44444444--66666666-222222-----------------------| 
D|--2-2222222--2-22222222-2--44444444--66666666-222222----X-4----------------| 
A|--2-2222222--0-00000000-0--22222222--44444444-000000-----------------------| 
E|--0-0000000----------------------------------------------------------------| 

e|---------------------------------------------------------------------------| 
B|---------------------------------------------------------------------------| 
G|-4444-6666-----------------------------------------------------------------| 
D|-4444-6666--777777----9999999----------------------------------------------| 
A|-2222-4444--777777----9999999----------------------------------------------| 
E|------------555555----7777777----------------------------------------------| 

Chorus: 
e|---------------------------------------------------------------------------| 
B|---------------------------------------------------------------------------| 
G|-4--666--44---99-99-99-99-99-------------666666-444444-22222222------------| 
D|-x--xxx--xx---xx-xx-xx-xx-xx-X2 times----666666-444444-22222222-X2---------| 
A|-2--444--22---77-77-77-77-77-------then--444444-222222-00000000------------| 
E|---------------------------------------------------------------------------| 

Verse 
Chorus 
Intro 
Intro 
Intro (you know the idea :) 

-------------------------------------------------------------------------------
Related for The Sing Along Summer Song tab