Song name
# A B C D E F G H I J K L M N O P Q R S T U V W X Y Z

Satanic Warmaster - Eaten By Rats tab

Satanic Warmaster - Eaten By Rats


My second tab. Comments are welcome.

Tuning: Standard


Riff 1a Intro 2x
e|------------------------------------------------------------------|
B|------------------------------------------------------------------|
G|-------------------------------------------------------9-----6----|
D|--------10101010-5555555555555-----------------------10----5------|
A|-777777-7777777--3333333333333-55555555-22222222------------------|
E|-555555-5555555----------------33333333-00000000---8-----3--------|



Riff 1b 4x
e|--------------------------------------------------------------------|
B|--------------------------------------------------------------------|
G|--------------------------------------------------------------------|
D|--------10101010-5555555555555-------------------55555555-----------|
A|-777777-7777777--3333333333333-55555555-22222222-33333333-55555555--|
E|-555555-5555555----------------33333333-00000000----------33333333--|



Riff 2 Verse 2x  Not so sure about those last notes, but it's close.
e|--------------------------------------------------------------|
B|--------------------------------------------------------------|
G|--------------------------------------------------------------|
D|---------------------------------------------------5555-------|
A|-7777777-222222-555555-333333-777777-222222-555555-3333-5555--|
E|-5555555-000000-333333-111111-555555-000000-333333------3333--|

End riff 2 with this the second time. 
e|----------------|
B|----------------|
G|-------9-----6--|
D|----10-----5----|
A|----------------|
E|-8-----3--------|1x



Riff 1b 4x
e|--------------------------------------------------------------------|
B|--------------------------------------------------------------------|
G|--------------------------------------------------------------------|
D|--------10101010-5555555555555-------------------55555555-----------|
A|-777777-7777777--3333333333333-55555555-22222222-33333333-55555555--|
E|-555555-5555555----------------33333333-00000000----------33333333--|



Riff 2 Verse 2x
e|---------------------------------------------------------------|
B|---------------------------------------------------------------|
G|---------------------------------------------------------------|
D|---------------------------------------------------5555--------|
A|-7777777-222222-555555-333333-777777-222222-555555-3333--5555--|
E|-5555555-000000-333333-111111-555555-000000-333333-------3333--|



Chorus 4x 
e|--------------------------------------------|
B|--------------------------------------------|
G|--------------------------------------------|
D|--55555-77777-77777-99999--9999999999-------|
A|--33333-------55555--------7777777777-------|
E|--------------------------------------------|

e|------------------------------------|
B|------------------------------------|
G|--44444444-55554444-22222222222222--|
D|--55555555-55555555-00000000000000--|
A|------------------------------------|
E|------------------------------------|


Repeat:

Intro riff 1a 2x & riff 1b 4x

Verse 4x

Chorus 4x


End song with this
e|----------|
B|----------|
G|----------|
D|-5--7--9--|
A|-3--5--7--|
E|----------|

Tap to rate this tab
 
# A B C D E F G H I J K L M N O P Q R S T U V W X Y Z