Song name
# A B C D E F G H I J K L M N O P Q R S T U V W X Y Z

Satanic Warmaster - Blood Of Our Fathers tab

---------------------------------------------------------------------------- 
             The blood of our fathers - Satanic Warmaster
----------------------------------------------------------------------------
Tabbed by: Avadon
Email: sasa.korhonen@hotmail.com

| /  slide up
| .  Palm mute

Tuning: E A D G B e

 
 Riff 1
   . .   . . .   . . .   .
e|-------------------------------------------------------------------------|
B|-------------------------------------------------------------------------|
G|-------------------------------------------------------------------------|
D|-------------------------------------------------------------------------|
A|-----4-------5-------4---8---8-------------------------------------------|
E|-0-0-2-0-0-0-3-0-0-0-2-0-6---6-------------------------------------------|

Fist time when riff 1 is played, lead guitar:
   1,2,3,                            4
e|---------------------------------|---------------------------------------|
B|---------------------------------|---------------------------------------|
G|---------------------------------|---------------------------------------|
D|---------------------------------|---------------------------------------|
A|-------------------------8---8---|---------------------------------------|
E|-------------------------6---6---|-----------------Pick slide . . . . . .|
  
 
 Riff 2
 
e|-------------------------------------------------------------------------|
B|-------------------------------------------------------------------------|
G|-------------------------------------------------------------------------|
D|-7---------------5-------------------------------------------------------|
A|-7---------------5-------------------------------------------------------|
E|-5---------------3-------------------------------------------------------|


 Riff 3a

e|-------------------------------------------------------------------------|
B|-------------------------------------------------------------------------|
G|-------------------------------------------------------------------------|
D|-------------------------------------------------------------------------|
A|-2---2---2---2-4-4---2---2---2---5---5---5---5---5/7-7---7---7-----------|
E|-0---0---0---0-2-3---0---0---0---3---3---3---3---3/5-5---5---5-----------|


 Riff 3b

e|-------------------------------------------------------------------------|
B|-------------------------------------------------------------------------|
G|-------------------------------------------------------------------------|
D|-7---7---7---7-9-10--7---7---7---9---9---9---9---9-1010--10--10----------|
A|-7---7---7---7-9-10--7---7---7---9---9---9---9---9/1010--10--10----------|
E|-5---5---5---5-7-9---5---5---5---7---7---7---7---7/9-9---9---9-----------|


Riff 1 8x
Riff 2 1x
Riff 1 4x
Riff 2 1x
Riff 3a 4x
Riff 1 4x
Riff 2 1x
Riff 1 4x
Riff 2 1x
Riff 3a 4x
Riff 3b 4x

Tap to rate this tab
# A B C D E F G H I J K L M N O P Q R S T U V W X Y Z