Song name
# A B C D E F G H I J K L M N O P Q R S T U V W X Y Z

Satellite Party - Insanity Rains tab


6||-------------------------------------------------------------|
5||-------------------------------------------------------------|
4||----------5---7----------------------------------------------|
3||----------5---7-----------------5---5---5---7---8---7---5----|
2||----------3---5-----------------5---5---5---7---8---7---5----|
1||--0---0-----------0---0---0-----3---3---3---5---6---5---3----|



6||-----------------------------------------------------------|
5||-----------------------------------------------------------|
4||-----------------------------------------------------------|
3||---5----7---7----5----7----7----5---7---7---5---7---7------|
2||---5----7---7----5----7----7----5---7---7---5---7---7------|
1||---3----5---5----3----5----5----3---5---5---3---5---5------|



6||---------------------------------------------------------------------|
5||---------------------------------------------------------------------|
4||-------------5---7---------------------------------------------------|
3||-------------5---7---------------5---5---5----7----8----7---5--------|
2||-------------3---5---------------5---5---5----7----8----7---5--------|
1||---0---0-------------0---0---0---3---3---3----5----6----5---3--------|



6||-------------------------------------------------------------------|
5||-------------------------------------------------------------------|
4||----5-5---5-5-5---5-5-5---5-5-5---5-9-9--9-9-9--9-9-9---9-9-7-6-5--|
3||----5-5---5-5-5---5-5-5---5-5-5---5-9-9--9-9-9--9-9-9---9-9-7-6-5--|
2||----3-3---3-3-3---3-3-3---3-3-3---3-7-7--7-7-7--7-7-7---7-7-5-4-3--|
1||-------------------------------------------------------------------|

6||------------------------------------------------------|
5||------------------------------------------------------|
4||---5-5-5--5-5-5--7-7-7--7-7-7--7---3-3---3---3--------|
3||---5-5-5--5-5-5--7-7-7--7-7-7--7---3-3---3---3--------|
2||---3-3-3--3-3-3--5-5-5--5-5-5--0---1-1---1---1--------|
1||------------------------------------------------------|

  no solo
Tap to rate this tab
# A B C D E F G H I J K L M N O P Q R S T U V W X Y Z