Song name
# A B C D E F G H I J K L M N O P Q R S T U V W X Y Z

Satellite - Ring The Bells tab

TWLOHA <3

ORDER OF THE SONG:
1.	INTRODUCTION
2.	VERSE
3.	CHORUS
4.	INTRO
5.	VERSE
6.	CHORUS
7.	BRIDGE
8.	CHORUS + LAST NOTE

INTRODUCTION
e|---------------------------------------------------------------|
B|---2---2---2---2---0---0---0---0-------------------------------|
G|------------------------------------X2-------------------------|
D|---------------------------------------------------------------|
A|-0---0---0---0---4---4---4---4---------------------------------|
E|---------------------------------------------------------------|

VERSE
e|---------------------------------------------------------------|
B|---2---2---2---2---0---0---0---0-------------------------------|
G|------------------------------------X4-------------------------|
D|---------------------------------------------------------------|
A|-0---0---0---0---4---4---4---4---------------------------------|
E|---------------------------------------------------------------|

e|---2---2---2---2---2---2---2---2---2---2---0---0---------------|
B|---------------------------------------------------------------|
G|---------------------------------------------------------------|
D|-0---0---0---0---0---0---0---0---0---0---4---4-----------------|
A|---------------------------------------------------------------|
E|---------------------------------------------------------------|

e|---2---2---2---2-----------------------------------------------|
B|-------------------3---3---3---3-------------------------------|
G|---------------------------------------------------------------|
D|-0---0---0---0-------------------------------------------------|
A|-----------------2---2---2---2---------------------------------|
E|---------------------------------------------------------------|

e|---------------------------------------------------------------|
B|---2---2---2---2---0---0---0---0-------------------------------|
G|------------------------------------X4-------------------------|
D|---------------------------------------------------------------|
A|-0---0---0---0---4---4---4---4---------------------------------|
E|---------------------------------------------------------------|

e|---2---2---2---2---2---2---2---2---2---2---0---0---------------|
B|---------------------------------------------------------------|
G|---------------------------------------------------------------|
D|-0---0---0---0---0---0---0---0---0---0---4---4-----------------|
A|---------------------------------------------------------------|
E|---------------------------------------------------------------|

e|---2---2---2---2-----------------------------------------------|
B|-------------------3---3---3---3-------------------------------|
G|---------------------------------------------------------------|
D|-0---0---0---0-------------------------------------------------|
A|-----------------2---2---2---2---------------------------------|
E|---------------------------------------------------------------|

CHORUS
e|---2---2---2---2---4---4---4---4---0---0---0---0---------------|
B|---------------------------------------------------------------|
G|---------------------------------------------------------------|
D|-0---0---0---0---2---2---2---2---4---4---4---4-----------------|
A|---------------------------------------------------------------|
E|---------------------------------------------------------------|

e|---2---2---2---2-----------------------------------------------|
B|---------------------------------------------------------------|
G|----------------------X3---------------------------------------|
D|---------------------------------------------------------------|
A|-0---0---0---0-------------------------------------------------|
E|---------------------------------------------------------------|

e|---2---2---2---2---4---4---4---4---5---5---5---5---------------|
B|---------------------------------------------------------------|
G|---------------------------------------------------------------|
D|-0---0---0---0---2---2---2---2---4---4---4---4-----------------|
A|---------------------------------------------------------------|
E|---------------------------------------------------------------|

e|---4---4---4---4---0---0---------------------------------------|
B|---------------------------3---3-------------------------------|
G|---------------------------------------------------------------|
D|-2---2---2---2---4---4-----------------------------------------|
A|-------------------------2---2---------------------------------|
E|---------------------------------------------------------------|

BRIDGE             ...(The day…)
e|-------------------3---3---3---3-------------------------------|
B|---2---2---2---2-------------------3---3---3---3---------------|
G|---------------------------------------------------------------|
D|-----------------2---2---2---2---------------------------------|
A|-0---0---0---0-------------------2---2---2---2-----------------|
E|---------------------------------------------------------------|
                   ...(Brings colors…)
e|-------------------3---3---3---3---2---2---2---2---------------|
B|---2---2---2---2-----------------------------------------------|
G|---------------------------------------------------------------|
D|-----------------2---2---2---2---0---0---0---0-----------------|
A|-0---0---0---0-------------------------------------------------|
E|---------------------------------------------------------------|

e|---------------------------------------------------------------|
B|---2---2---2---2-----------------------------------------------|
G|---------------------------------------------------------------|
D|---------------------------------------------------------------|
A|-0---0---0---0-------------------------------------------------|
E|---------------------------------------------------------------|
...(Sometimes…)
e|---3---3---3---3---2---2---2---2---1---1---1---1---------------|
B|---------------------------------------------------------------|
G|---------------------------------------------------------------|
D|-2---2---2---2---0---0---0---0---0---0---0---0-----------------|
A|---------------------------------------------------------------|
E|---------------------------------------------------------------|

e|---0---0---0---0-----------------------------------------------|
B|-------------------3---3---3---3---3---3---3---3---------------|
G|---------------------------------------------------------------|
D|---------------------------------------------------------------|
A|-4---4---4---4---2---2---2---2---2---2---2---2-----------------|
E|---------------------------------------------------------------|

e|---------------------------------------------------------------|
B|---3---3---3---3---3---3---3---3-------------------------------|
G|---------------------------------------------------------------|
D|---------------------------------------------------------------|
A|-1---1---1---1---1---1---1---1---------------------------------|
E|---------------------------------------------------------------|

e|---------------------------------------------------------------|
B|---2---2---2---2---0---0---0---0-------------------------------|
G|--------------------------------------X4-----------------------|
D|---------------------------------------------------------------|
A|-0---0---0---0---4---4---4---4---------------------------------|
E|---------------------------------------------------------------|

SONG ENDS ON (after last chorus):
e|------|
B|-2~---|
G|------|
D|------|
A|-0~---|
E|------|
Tap to rate this tab
# A B C D E F G H I J K L M N O P Q R S T U V W X Y Z