Song name
# A B C D E F G H I J K L M N O P Q R S T U V W X Y Z

Satellite - Ring The Bells tab

xxxxxxxxxxxxxxxxxxxxxxxxxxxxxxxxxxxxxxxxxxxxxxxxxxxxxxxxxxxxxxxxxxxxxxxxxxxxxxxxxxxxxxxxxxxxxxxxxx
                                         R i n g  T h e  B e l l s
                                              S a t e l l i t e
                                     C a l l i n g  B i r d s  ( 2 0 1 3 ) 
xxxxxxxxxxxxxxxxxxxxxxxxxxxxxxxxxxxxxxxxxxxxxxxxxxxxxxxxxxxxxxxxxxxxxxxxxxxxxxxxxxxxxxxxxxxxxxxxxx




Tabbed by Ygor



Tunning: E(Standard)


 Intro:

    A                          C#m
e]--------------------------|-----------------------------|
B]--------------------------|-----------------------------|
G]-----6----6----6------6---|-----9----9----9-----9-------|(2x)
D]--------------------------|-----------------------------|
A]--------------------------|-----------------------------|
E]---5----5----5------5-----|---9----9----9-----9---------|


Verse 1:

    A                          C#m                            D                                       
e]--------------------------|-----------------------------|-----------------------------------------|
B]--------------------------|-----------------------------|-----------------------------------------|
G]-----6----6----6------6---|-----9----9----9-----9-------|-----11----11------11--11-----11----11---|
D]--------------------------|-----------------------------|-----------------------------------------|
A]--------------------------|-----------------------------|-----------------------------------------|
E]---5----5----5------5-----|---9----9----9-----9---------|--10----10-----10-----10---10----10------|

   C#m               Bm
e]----------------|---------------------------|
B]----------------|---------------------------|
G]------9----9----|----7-----7------7-----7---|
D]----------------|---------------------------|
A]----------------|---------------------------|
E]--9-----9-------|--7----7------7-----7------|


A        C#m   A            C#m          A
Find the words  that make it right again
        C#m   A         C#m                 D      C#m
Calling birds  help you make it through the night
     D       Bm           
It's just enough  



Verse 2:

    A                          C#m                            D                                       
e]--------------------------|-----------------------------|-----------------------------------------|
B]--------------------------|-----------------------------|-----------------------------------------|
G]-----6----6----6------6---|-----9----9----9-----9-------|-----11----11------11--11-----11----11---|
D]--------------------------|-----------------------------|-----------------------------------------|
A]--------------------------|-----------------------------|-----------------------------------------|
E]---5----5----5------5-----|---9----9----9-----9---------|--10----10-----10-----10---10----10------|

   C#m               Bm
e]----------------|---------------------------|
B]----------------|---------------------------|
G]------9----9----|----7-----7------7-----7---|
D]----------------|---------------------------|
A]----------------|---------------------------|
E]--9-----9-------|--7----7------7-----7------|

A         C#m  A        C#m           A
to find a way   to open up once again
             C#m   A        C#m             D  C#m D Bm 
And learn to take   all the beauty that's inside



Chorus 1:

   D                                  E
e]---------------------------------|--------------------------------|
B]---------------------------------|--------------------------------|
G]-----11------11-----11------11---|-----13------13------13-----13--|
D]---------------------------------|--------------------------------|
A]---------------------------------|--------------------------------|
E]--10-----10-----10------10-------|--12-----12------12-----12------|

    C#m                       Bm
e]-------------------------|-----------------------------|
B]-------------------------|-----------------------------|
G]----9-----9----9-----9---|-----7-----7------7-----7----|
D]-------------------------|-----------------------------|
A]-------------------------|-----------------------------|
E]--9----9----9-----9------|---7-----7------7-----7------|

     D                   E
Well ring the bells that lead you home
         C#m              D
Cause the only truth I've ever known
                     E                  C#m   D
Is that nothing ever hurts us more than love
             E                   
So circle up your best friends
          C#m           D
And we'll celebrate the way it ends
            E      C#m D          
At least we live tonight
            C#m Bm  D
At least we live tonight


Transition 1:

    A                          C#m
e]--------------------------|-----------------------------|
B]--------------------------|-----------------------------|
G]-----6----6----6------6---|-----9----9----9-----9-------|(2x)
D]--------------------------|-----------------------------|
A]--------------------------|-----------------------------|
E]---5----5----5------5-----|---9----9----9-----9---------|



Verse 3:

    A                          C#m                            D                                       
e]--------------------------|-----------------------------|-----------------------------------------|
B]--------------------------|-----------------------------|-----------------------------------------|
G]-----6----6----6------6---|-----9----9----9-----9-------|-----11----11------11--11-----11----11---|
D]--------------------------|-----------------------------|-----------------------------------------|
A]--------------------------|-----------------------------|-----------------------------------------|
E]---5----5----5------5-----|---9----9----9-----9---------|--10----10-----10-----10---10----10------|

   C#m               Bm
e]----------------|---------------------------|
B]----------------|---------------------------|
G]------9----9----|----7-----7------7-----7---|
D]----------------|---------------------------|
A]----------------|---------------------------|
E]--9-----9-------|--7----7------7-----7------|

A          C#m   A
Scream out loud
          C#m        A             
Until you feel again  
             C#m A           C#m          D      C#m D Bm  
And hear the sound of how to heal an aching heart



Verse 4:

    A                          C#m                            D                                       
e]--------------------------|-----------------------------|-----------------------------------------|
B]--------------------------|-----------------------------|-----------------------------------------|
G]-----6----6----6------6---|-----9----9----9-----9-------|-----11----11------11--11-----11----11---|
D]--------------------------|-----------------------------|-----------------------------------------|
A]--------------------------|-----------------------------|-----------------------------------------|
E]---5----5----5------5-----|---9----9----9-----9---------|--10----10-----10-----10---10----10------|

   C#m               Bm
e]----------------|---------------------------|
B]----------------|---------------------------|
G]------9----9----|----7-----7------7-----7---|
D]----------------|---------------------------|
A]----------------|---------------------------|
E]--9-----9-------|--7----7------7-----7------|

           A            C#m    A
And those that know you most
             C#m           A
Can help you to live again
            C#m   A
So keep the close
         C#m              D    C#m D Bm
As you're making your new start



Chorus 2:

   D                                  E
e]---------------------------------|--------------------------------|
B]---------------------------------|--------------------------------|
G]-----11------11-----11------11---|-----13------13------13-----13--|
D]---------------------------------|--------------------------------|
A]---------------------------------|--------------------------------|
E]--10-----10-----10------10-------|--12-----12------12-----12------|

    C#m                       Bm
e]-------------------------|-----------------------------|
B]-------------------------|-----------------------------|
G]----9-----9----9-----9---|-----7-----7------7-----7----|
D]-------------------------|-----------------------------|
A]-------------------------|-----------------------------|
E]--9----9----9-----9------|---7-----7------7-----7------|

     D                   E
Well ring the bells that lead you home
         C#m              D
Cause the only truth I've ever known
                     E                  C#m   D
Is that nothing ever hurts us more than love
             E                   
So circle up your best friends
          C#m           D
And we'll celebrate the way it ends
            E      C#m D          
At least we live tonight
            C#m Bm  D
At least we live tonight



Bridge:


    Em                             D
e]-------------------------------|--------------------------------|
B]-------------------------------|--------------------------------|
G]-----12-----12------12-----12--|----10-----10-----10-----10-----|
D]-------------------------------|--------------------------------|
A]-------------------------------|--------------------------------|
E]--12-----12-----12-----12------|--10-----10-----10----10--------|

    Bm                            A                          Dm7
e]-----------------------------|---------------------------|-------------------------|
B]-----------------------------|---------------------------|-------------------------|
G]----7-----7------7-----7-----|-----6----6----6------6----|----10----10----10----10-|
D]-----------------------------|---------------------------|-------------------------|
A]-----------------------------|---------------------------|-------------------------|
E]--7----7------7-----7--------|---5----5----5------5------|-10---10----10----10-----|

    C#m                        Bb7
e]---------------------------|----------------------|
B]---------------------------|----------------------|
G]-----9-----9----9-----9----|----7---7----7----7---|
D]---------------------------|----------------------|
A]---------------------------|----------------------|
E]---9----9----9-----9-------|--6---6---6----6------|

    Em              D
The day you finally turn to dust
    Bm                A
And finally hear your name
       Em               D          A
Brings colors that will never fade away
    Em                D
Sometimes the best in all of us
    Dm7                  C#m              Bm
Can still break down and still give up on love
           Bb7    (A)
But it's never gone



Transition 2:

    A                          C#m
e]--------------------------|-----------------------------|
B]--------------------------|-----------------------------|
G]-----6----6----6------6---|-----9----9----9-----9-------|(4x)
D]--------------------------|-----------------------------|
A]--------------------------|-----------------------------|
E]---5----5----5------5-----|---9----9----9-----9---------|



Chorus 3:

   D                                  E
e]---------------------------------|--------------------------------|
B]---------------------------------|--------------------------------|
G]-----11------11-----11------11---|-----13------13------13-----13--|
D]---------------------------------|--------------------------------|
A]---------------------------------|--------------------------------|
E]--10-----10-----10------10-------|--12-----12------12-----12------|

    C#m                       Bm
e]-------------------------|-----------------------------|
B]-------------------------|-----------------------------|
G]----9-----9----9-----9---|-----7-----7------7-----7----|
D]-------------------------|-----------------------------|
A]-------------------------|-----------------------------|
E]--9----9----9-----9------|---7-----7------7-----7------|

     D                   E
Well ring the bells that lead you home
         C#m              D
Cause the only truth I've ever known
                     E                  C#m   D
Is that nothing ever hurts us more than love
             E                   
So circle up your best friends
          C#m           D
And we'll celebrate the way it ends
            E      C#m D          
At least we live tonight
            C#m B   D
At least we live tonight
Tap to rate this tab
# A B C D E F G H I J K L M N O P Q R S T U V W X Y Z