Song name
# A B C D E F G H I J K L M N O P Q R S T U V W X Y Z

Satin Dolls - No Ests tab

 FONDO DE BAJO
e|------------------------------------|
B|------------------------------------|
G|------------------------------------|
D|------------------------------------|
A|-9-9-9-9-7-7-7-7-4-4-4-4-7-7-7-7----| X7
D|------------------------------------|
   GUITARRA CORO
e|------------------------------------------------------------------|
B|-2--2--2-2--2--2-2-2/5--3--3-3--3--2--3--3-3--3--5-------|   -2---|
G|---------------------------------------------------------|   -----|
D|---------------------------------------------------------|X2 -----|
A|---------------------------------------------------------|   -----|
D|---------------------------------------------------------|   -----|

 TODO LO ANTERIOR SE REPITE DOS VECES

e|-2-2-2-2-2-2-2-2-2-2-2-4-4-4-4-4-4-4-4-4-4-5-5-5-5-5-5-5-5-5-5----|
B|------------------------------------------------------------------|
G|------------------------------------------------------------------|
D|------------------------------------------------------------------|
A|------------------------------------------------------------------|
D|------------------------------------------------------------------|

e|--7-7-7-7-7-7-7-7-7-7-----------2---|
B|------------------------------------|
G|------------------------------------|
D|------------------------------------|
A|------------------------------------|
D|------------------------------------|

e|------------------------------------|
B|------------------------------------|
G|------------------------------------|
D|------------------------------------|
A|-9-9-9-9-7-7-7-7-4-4-4-4-2-2-2-2----|
D|------------------------------------|

OUTRO

e|-10-10-10-10-12-12-12-12-10-10-10-10-9-9-9-9--|
B|----------------------------------------------|
G|----------------------------------------------|
D|----------------------------------------------|
A|----------------------------------------------|
D|----------------------------------------------|

e|-14-14-14-14-16-16-16-16-17-17-17-17-19-19-19-19---14--|
B|-------------------------------------------------------|
G|-------------------------------------------------------|
D|-------------------------------------------------------|
A|-------------------------------------------------------|
D|-------------------------------------------------------|

e|---------------|
B|----14---------|
G|------14-------|
D|--------12-----|
A|---------------|
D|---------------|

es muy sencilla solo se necista escuchar bien
saludos
twitter: @tuamigoesun
Tap to rate this tab
 
# A B C D E F G H I J K L M N O P Q R S T U V W X Y Z