Song name
# A B C D E F G H I J K L M N O P Q R S T U V W X Y Z

Satin Dolls - Maybe tab

INTRO GUITARRA FONDO

e|-------6---------3---------4--------------------------------|
B|-----6---------3---------6----------------------------------| X2
G|---7---------3---------5------------------------------------|
D|-8---------5---------6--------------------------------------|
A|------------------------------------------------------------|
D|------------------------------------------------------------|

INTRO GUITARRA
e|--6-----6----6-----3-----3---3-----1-----1---1---4-4-3-1-|
B|----6-6-----6-6------4-4----4-4------1-1----1-1---1-1-1-1|
G|---------------------------------------------------------|
D|---------------------------------------------------------|
A|---------------------------------------------------------|
D|---------------------------------------------------------|

e|--6-----6----6----3-3-6-3---1-----1--1------------|
B|----6-6-----6-6----4-4-4-4----1-1---1-1--4-4-6-6--|
G|------------------------------------------5-5-5-5-|
D|--------------------------------------------------|
A|--------------------------------------------------|
D|--------------------------------------------------|
       GTR 1                         GTR FONDO
e|-6-----6---6---9--9--8-6----| e|-------------|
B|---6-6----6-6---6--6--6-6---| B|-------------|
G|----------------------------| G|--3--3/6--5--|
D|----------------------------| D|--3--3/6--5--|
A|----------------------------| A|--1--1/4--3--|
D|----------------------------| D|-------------|


e|--------------1-1-----4-4--1/13----|
B|------------------1-1--------------|
G|-----5-5--1-1----------------------|
D|-3-3-------------------------------| X2
A|-----------------------------------|
D|-----------------------------------|
|*DEJAR SONAR| VERSO
e|-----------|     e|------------------|
B|-----------|     B|------------------|
G|-----------|     G|------------------|
D|-----------| X6  D|------------------|
A|-----------|     A|----------1-1-3-3-|
D|--3-3--6*--|     D|--3-3-6-6---------|

e|-----------|     e|---------------|
B|-----------|     B|---------------|
G|-----------|     G|---------------|
D|-----------| X6  D|---------------|
A|-----------|     A|-----3-3-1-1---|
D|--3-3--6*--|     D|--3-3-------6-6|

e|---------------------------------------------------------|
B|---------------------------------------------------------|
G|-3--3-3----6--6-6----------------------------------------|
D|-3--3-3----6--6-6----1-1-3-3-5-5-6-6-8-8-6-6-5-5-3-3-----|
A|-1--1-1----4--4-4----------------------------------------|
D|---------------------------------------------------------|

e|---------------------------------------------------------|
B|---------------------------------------------------------|
G|-3--3-3--------------------------------------------------|
D|-3--3-3----1--1-1--3-3-1-1-------------------------------|
A|-1--1-1----1--1-1----------4-4-3-3-1-1-------------------|
D|-----------1--1-1----------------------6-6-5-5-3-3-------|

e|----------------------------6-6--6-6--6-6--6-6-----------|
B|----------------------------5-5--5-5--5-5--5-5-----------|
G|-3--3-3--3-3--6--6-6--6-6---6-6--6-6--6-6--6-6-----------|
D|-3--3-3--3-3--6--6-6--6-6---6-6--6-6--6-6--6-6-----------|
A|-1--1-1--1-1--4--4-4--4-4---4-4--4-4--4-4--4-4-----------|
D|---------------------------------------------------------|

 CORO
e|------------------------------------------------------------|
B|------------------------------------------------------------|
G|------------------------------------------------------------|
D|--6--6-6--6-6-6--6-6-6--6-6-6--1--1-1--1-1-1--1-1-1--1-1-1--|
A|--6--6-6--6-6-6--6-6-6--6-6-6--1--1-1--1-1-1--1-1-1--1-1-1--|
D|--6--6-6--6-6-6--6-6-6--6-6-6--1--1-1--1-1-1--1-1-1--1-1-1--|

e|-------------------------------------1-------1-------1------1|
B|-------------------------------------------------------------|
G|-3--3-3--3-3----6--6-6--6-6----------------------------------|
D|-3--3-3--3-3----6--6-6--6-6----3-3-3---3-3-3---3-3-3---3-3-3-|
A|-1--1-1--1-1----4--4-4--4-4----------------------------------|
D|-------------------------------------------------------------|

e|------------------------------------------------------------|
B|------------------------------------------------------------|
G|------------------------------------------------------------|
D|--6--6-6--6-6-6--6-6-6--6-6-6--1--1-1--1-1-1--1-1-1--1-1-1--|
A|--6--6-6--6-6-6--6-6-6--6-6-6--1--1-1--1-1-1--1-1-1--1-1-1--|
D|--6--6-6--6-6-6--6-6-6--6-6-6--1--1-1--1-1-1--1-1-1--1-1-1--|


e|------------------------------------------------------------|
B|------------------------------------------------------------|
G|-3--3-3--3-3----6--6-6--6-6---------------------------------|
D|-3--3-3--3-3----6--6-6--6-6----3-3-3-3-3-3-3-3-3-3-3-3-3-3-3|
A|-1--1-1--1-1----4--4-4--4-4---------------------------------|
D|------------------------------------------------------------|

e|--------------1-1-----4-4--1/13----|
B|------------------1-1--------------|
G|-----5-5--1-1----------------------|
D|-3-3-------------------------------| X2
A|-----------------------------------|
D|-----------------------------------|

 VERSO 2
e|------------------------------------------|
B|------------------------------------------|
G|-10---10---10---10---10---10---10---13-13-|
D|-10---10---10---10---10---10---10---13-13-| X2
A|-8----8----8----8----8----8----8----11-11-|
D|------------------------------------------|


e|---------------------------------------------------------|
B|---------------------------------------------------------|
G|-3--3-3----6--6-6----------------------------------------|
D|-3--3-3----6--6-6----1-1-3-3-5-5-6-6-8-8-6-6-5-5-3-3-----|
A|-1--1-1----4--4-4----------------------------------------|
D|---------------------------------------------------------|

e|---------------------------------------------------------|
B|---------------------------------------------------------|
G|-3--3-3--------------------------------------------------|
D|-3--3-3----1--1-1--3-3-1-1-------------------------------|
A|-1--1-1----1--1-1----------4-4-3-3-1-1-------------------|
D|-----------1--1-1----------------------6-6-5-5-3-3-------|

e|----------------------------6-6--6-6--6-6--6-6-----------|
B|----------------------------5-5--5-5--5-5--5-5-----------|
G|-3--3-3--3-3--6--6-6--6-6---6-6--6-6--6-6--6-6-----------|
D|-3--3-3--3-3--6--6-6--6-6---6-6--6-6--6-6--6-6-----------|
A|-1--1-1--1-1--4--4-4--4-4---4-4--4-4--4-4--4-4-----------|
D|---------------------------------------------------------|

CORO 2

e|------------------------------------------------------------|
B|------------------------------------------------------------|
G|------------------------------------------------------------|
D|--6--6-6--6-6-6--6-6-6--6-6-6--1--1-1--1-1-1--1-1-1--1-1-1--|
A|--6--6-6--6-6-6--6-6-6--6-6-6--1--1-1--1-1-1--1-1-1--1-1-1--|
D|--6--6-6--6-6-6--6-6-6--6-6-6--1--1-1--1-1-1--1-1-1--1-1-1--|

e|-------------------------------------1-------1-------1------1|
B|-------------------------------------------------------------|
G|-3--3-3--3-3----6--6-6--6-6----------------------------------|
D|-3--3-3--3-3----6--6-6--6-6----3-3-3---3-3-3---3-3-3---3-3-3-|
A|-1--1-1--1-1----4--4-4--4-4----------------------------------|
D|-------------------------------------------------------------|

e|------------------------------------------------------------|
B|------------------------------------------------------------|
G|------------------------------------------------------------|
D|--6--6-6--6-6-6--6-6-6--6-6-6--1--1-1--1-1-1--1-1-1--1-1-1--|
A|--6--6-6--6-6-6--6-6-6--6-6-6--1--1-1--1-1-1--1-1-1--1-1-1--|
D|--6--6-6--6-6-6--6-6-6--6-6-6--1--1-1--1-1-1--1-1-1--1-1-1--|


e|-6-----6---6---9----9--9----4*--|
B|---6-6----6-6---6-6---6-6---6*--|
G|----------------------------5*--|
D|----------------------------6*--|
A|-------------------------------|
D|-------------------------------|

e|-6-----6---6---9----9*----------------|
B|---6-6----6-6---6-6-------------------|
G|------------------------6-6--6-6--6-6-|
D|------------------------6-6--6-6--6-6-|
A|------------------------4-4--4-4--4-4-|
D|--------------------------------------|

OUTRO


e|------------------------------------------------------------|
B|------------------------------------------------------------|
G|------------------------------------------------------------|
D|--6--6-6--6-6-6--6-6-6--6-6-6--1--1-1--1-1-1--1-1-1--1-1-1--|
A|--6--6-6--6-6-6--6-6-6--6-6-6--1--1-1--1-1-1--1-1-1--1-1-1--|
D|--6--6-6--6-6-6--6-6-6--6-6-6--1--1-1--1-1-1--1-1-1--1-1-1--|

e|-------------------------------------------1-1-----4-4--1/13-|
B|-----------------------------------------------1-1-----------|
G|-3--3-3--3-3----6--6-6--6-6--------5-5-1-1-------------------|
D|-3--3-3--3-3----6--6-6--6-6----3-3---------------------------|
A|-1--1-1--1-1----4--4-4--4-4----------------------------------|
D|-------------------------------------------------------------|

e|------------------------------------------------------------|
B|------------------------------------------------------------|
G|------------------------------------------------------------|
D|--6--6-6--6-6-6--6-6-6--6-6-6--1--1-1--1-1-1--1-1-1--1-1-1--|
A|--6--6-6--6-6-6--6-6-6--6-6-6--1--1-1--1-1-1--1-1-1--1-1-1--|
D|--6--6-6--6-6-6--6-6-6--6-6-6--1--1-1--1-1-1--1-1-1--1-1-1--|

e|-------------------------------------------------------------|
B|-------------------------------------------------------------|
G|-3--3-3--3-3----6--6-6--6-6-----3--3-3--3-3----6--6-6--6-6---|
D|-3--3-3--3-3----6--6-6--6-6-----3--3-3--3-3----6--6-6--6-6---|
A|-1--1-1--1-1----4--4-4--4-4-----1--1-1--1-1----4--4-4--4-4---|
D|-------------------------------------------------------------|

e|------------------------------------------------|
B|------------------------------------------------|
G|-3--3-3--3-3----6--6-6--6-6---------------------|
D|-3--3-3--3-3----6--6-6--6-6--------3*-----------|
A|-1--1-1--1-1----4--4-4--4-4--------3*-----------|
D|-----------------------------------3*-----------|

by mic
twitter @tuamigoesun
saludos                           también funciona con "vuelve"
Tap to rate this tab
# A B C D E F G H I J K L M N O P Q R S T U V W X Y Z