Guitaretab - guitar tabs
Song name
# A B C D E F G H I J K L M N O P Q R S T U V W X Y Z

Satriani Joe - The Extremist tab

This track has got an awesome solo, with just one problem. If you play at the standard
you find the right notes at odd places, but tuning the guitar at a note higher makes life
easier and you will find yourself playing at places on the fretboard where it is
to play exactly and more easily. I have tabbed-out the track in the standard tuning but
needs to be played at a note higher (FCAbEbBbF) to match the original pitch of the track.

Also this is my first tab, so any mistakes, suggestions or comments are most welcome.

E|-----------------------------12---------12-14-|
B|----12-0-12-14-15-0-12-14-15----0-14-15-------|
G|-11-------------------------------------------|
D|----------------------------------------------|
A|----------------------------------------------|
E|----------------------------------------------|

E|------12-14-15-17---14-15-17---14-15-17-17-17-|
B|-0-15-------------0----------0----------------|
G|----------------------------------------------|
D|----------------------------------------------|
A|----------------------------------------------|
E|----------------------------------------------|

E|--17b19p15-17~~~~--17-15h17p15h17p15-14h15p14h15p14-|
B|----------------------------------------------------|
G|----------------------------------------------------|
D|----------------------------------------------------|
A|----------------------------------------------------|
E|----------------------------------------------------|

E|-12h14p12h14p12--10h12p10--9h10p9-7h9p7-5h7p5-3h5p3-|
B|----------------------------------------------------|
G|----------------------------------------------------|
D|----------------------------------------------------|
A|----------------------------------------------------|
E|----------------------------------------------------|

E|-2h3h5p2--------------------|---------------------|
B|---------2h3h5p3p2p0-2-2/4--|--12b14-12b15~~~~~---|
G|----------------------------|---------------------|
D|----------------------------|---------------------|
A|----------------------------|---------------------|
E|----------------------------|---------------------|

E|--------------------------|-------7------------7------|
B|-12b14b12--12b4b12-5/7~~~-|-10b12---10-7-10b12---10-7-|
G|--------------------------|---------------------------|
D|--------------------------|---------------------------|
A|--------------------------|---------------------------|
E|--------------------------|---------------------------|

E|-------7------------7--------------7--------------|
B|-10b12---10-7-10~~~---10-7-----------10-7---------|
G|---------------------------9b11~~~--------9b11~~~-|
D|--------------------------------------------------|
A|--------------------------------------------------|
E|--------------------------------------------------|

E|-------------------------|-----------------------------|
B|-7-----------------------|-----------------------------|
G|---9b11p7----------------|-7--6h7p6h7p6p4--6h7p6h7p6p4-|
D|----------7--------------|-----------------------------|
A|------------9b12-9b12~~~-|-----------------------------|
E|-------------------------|-----------------------------|
[ Tab from: http://www.guitaretab.com/s/satriani-joe/16833.html ]
E|-------------------------------------------------|
B|-------------------------------------------------|
G|-6h7p6h7p6p4--6h7p6h7p6p4--6h7p6h7p6p46h7p6h7p6-|
D|-------------------------------------------------|
A|-------------------------------------------------|
E|-------------------------------------------------|

E|--------------------------------------------------|
B|--------------------------------------------------|
G|-4h6p4-2h4p2-0h2p0---0---02h4p2p0-----------------|
D|-------------------4---4-------------2p0----0h2p0-|
A|------------------------------------------4-------|
E|--------------------------------------------------|

E|--------------------------|--------------------|
B|--------------------------|--------------------|
G|--------------------------|--------------------|
D|--------------------------|--------------------|
A|-4p2p05p4p2--------0h2p0-|-------------2h5p2--|
E|-------------5p0h2--------|---5--0h2h5---------|

E|------------------------------------------------|
B|------------------------------------------------|
G|------------------------6-7p0h7--6--------------|
D|--------------5-7-5-7-9-------------5h7p5p4h5---|
A|-0--2-4-5-7-9-----------------------------------|
E|------------------------------------------------|

E|---------------------------------------|
B|---------------------------------------|
G|-2-4-6h7h9p7p6h7-----9b11~~~~~~~~------|
D|---------------------------------------|
A|---------------------------------------|
E|---------------------------------------|

E|-10b12~~---107--------------------------------------|
B|-----------------10----------------------------------|
G|---------------------9b10-7--------------------------|
D|-----------------------------9--7--------------------|
A|-----------------------------------9--7--5--75------|
E|-------------------------------------------------57-|

E|------------------------------------------------|
B|------------------------------------------------|
G|------------------------------------------------|
D|------------------------------------------------|
A|-/p0-9p0-9-10p0-12-10p0-12-14p0-16-14p0-16-17p0-|
E|------------------------------------------------|

E|-----------------------------------------|
B|-----------------------------------------|
G|-----------------------------------------|
D|-----------------------------------------|
A|-19-17p0-21-19p022b24-24-24-24-24~~~~~--|
E|-----------------------------------------|

E|-----------------------------|
B|-20b22~~~---20b22b20~~~~-----|
G|-----------------------------|
D|-----------------------------|
A|-----------------------------|
E|-----------------------------|

The next part cannot be tabbed-out, as it consists of heavy delay playing on the sound
a finger makes as it rubs the heavier strings. I leave for an expert to make an addition.
here is the end.

E|---------------------------------------------|
B|-----12--13-15-16~--15--13--12-13-15b16~~~~--|
G|-12------------------------------------------|
D|---------------------------------------------|
A|---------------------------------------------|
E|---------------------------------------------|

E|----------------------------------------|
B|-----12--13-15-15b16~b15--1318b20~~~---|
G|-12-------------------------------------|
D|----------------------------------------|
A|----------------------------------------|
E|----------------------------------------|

Enjoy!
Related for The Extremist tab