Song name
# A B C D E F G H I J K L M N O P Q R S T U V W X Y Z

Saturate - Compromise tab

!!!Only Refrain!!!

Tempo = 128

C#|----------------------------------------------------|----|
G#|----------------------------------------------------|----|
E |----------------------------------------------------|----|
B |--10-10-10-10-------10-10-10-10-------10-10-10-10---|----|
F#|--10-10-10-10-------10-10-10-10-------10-10-10-10---|----|
B |--10-10-10-10-------10-10-10-10-------10-10-10-10---|----|


----------------------------------------------------|----|
----------------------------------------------------|----|
----------------------------------------------------|----|
--2--2--2--2--------2--2--2--2--------2--2--2--2----|----|
--2--2--2--2--------2--2--2--2--------2--2--2--2----|----|
--2--2--2--2--------2--2--2--2--------2--2--2--2----|----|


----------------------------------------------------|----|
----------------------------------------------------|----|
----------------------------------------------------|----|
--10-10-10-10-------10-10-10-10-------10-10-10-10---|----|
--10-10-10-10-------10-10-10-10-------10-10-10-10---|----|
--10-10-10-10-------10-10-10-10-------10-10-10-10---|----|


----------------------------------------------------|
----------------------------------------------------|
----------------------------------------------------|
--2--2--2--2--------2--2--2--2--------2--2--2--2----|
--2--2--2--2--------2--2--2--2--------2--2--2--2----|
--2--2--2--2--------2--2--2--2--------2--2--2--2----|


----------------------------------------------------------------|
----------------------------------------------------------------|
----------------------------------------------------------------|
--------2--2--2--2--------2-----2-----------2-------------------|
--------2--2--2--2--------2-----2-----------2-------------------|
--------2--2--2--2--------2-----2-----------2-------------------|


----------------------------------------------------|
----------------------------------------------------|
--------------------------12-12-12----11-11-11------|
--10----10-10-10----10-10---------------------------|
--10----10-10-10----10-10---------------------------|
--10----10-10-10----10-10---------------------------|


----------------------------------------------------|
----------------------------------------------------|
--------------------------12-12-12----11-11-11------|
--10----10-10-10----10-10---------------------------|
--10----10-10-10----10-10---------------------------|
--10----10-10-10----10-10---------------------------|


----------------------------------------------------|
----------------------------------------------------|
--------------------------5--5--5-----4--4--4-------|
--2-----2--2--2-----2--2----------------------------|
--2-----2--2--2-----2--2----------------------------|
--2-----2--2--2-----2--2----------------------------|


----------------------------------------------------|
----------------------------------------------------|
--------------------------5--5--5-----4--4--4-------|
--2-----2--2--2-----2--2----------------------------|
--2-----2--2--2-----2--2----------------------------|
--2-----2--2--2-----2--2----------------------------|


----------------------------------------------------|
----------------------------------------------------|
--------------------------12-12-12----11-11-11------|
--10----10-10-10----10-10---------------------------|
--10----10-10-10----10-10---------------------------|
--10----10-10-10----10-10---------------------------|


----------------------------------------------------|
----------------------------------------------------|
--------------------------12-12-12----11-11-11------|
--10----10-10-10----10-10---------------------------|
--10----10-10-10----10-10---------------------------|
--10----10-10-10----10-10---------------------------|


----------------------------------------------------|
----------------------------------------------------|
--------------------------5--5--5-----4--4--4-------|
--2-----2--2--2-----2--2----------------------------|
--2-----2--2--2-----2--2----------------------------|
--2-----2--2--2-----2--2----------------------------|


----------------------------------------------------||
----------------------------------------------------||
--------------------------5--5--5-----4--4--4-------||
--2-----2--2--2-----2--2----------------------------||
--2-----2--2--2-----2--2----------------------------||
--2-----2--2--2-----2--2----------------------------||

Tap to rate this tab
 
# A B C D E F G H I J K L M N O P Q R S T U V W X Y Z