Guitaretab - guitar tabs
Song name
# A B C D E F G H I J K L M N O P Q R S T U V W X Y Z

Saturnus - Murky Waters tab

-------------------------------------------------------------------------------
			  MURKY WATERS - Saturnus
-------------------------------------------------------------------------------
Tabbed by: Numinis
Email: emanuel_dhondt@msn.com

Tuning: Drop D
Listen to song for timing!
[ Tab from: http://www.guitaretab.com/s/saturnus/100273.html ]
Guitar 1 (use effect!)
e|--------------------------------------------------------|
B|--------------------------------------------------------|
G|--------------------------------------------------------|
D|----9-11-9--------9-11-9-------9-11-12-9----9-11-------9|
A|--9--------9----9--------9---9-----------12------11-12--|
D|9------------12------------9----------------------------|

Guitar 2 (after guitar 1 did his thing twice)

e|-------------------------------------5-5-5-3-3-3|
B|------------------------7-7-7-7-7(5)------------|
G|6-6-6-6-6p4-7-7-7-7-7p4-------------------------|
D|------------------------------------------------|
A|------------------------------------------------|
D|------------------------------------------------|

will tab the rest when I have time,
have fun

| /  slide up
| \  slide down
| h  hammer-on
| p  pull-off
| ~  vibrato
| +  harmonic
| x  Mute note
===============================================================================
Related for Murky Waters tab