Song name
# A B C D E F G H I J K L M N O P Q R S T U V W X Y Z

Satyajit Ray - Charus Theme tab

-----------------------------------------------------------------------------
                            Charu's Theme - Satyajit Ray
-----------------------------------------------------------------------------
Tabbed by: David K.
E-mail: thischarmingman13 (@) gmail.com

Tuning: C#G#C#F#A#C#

This song is in Satyajit Ray's "Charulata" and Wes Anderson's "Darjeeling Express". I 
retuned the guitar to get a drone sound like you hear from a sitar. The flute part was too 
quick so I left it out. It doesn't sound too hard if you're committed, though.

                                   (0:09)
C#|0---0-0-0---0-0-0---0-0-0---0-0------0-0-0-0--0-0-0-----------------------|
A#|3---3-2-3---3-2-3---3-2-3---3-2----5-7-8-7-5--3-2-3-----------------------|
F#|2---2-2-2---2-2-2---2-2-2---2-2--7------------2-2-2-----------------------|
C#|--0-------0-------0-------0------0----------------------------------------|
G#|--------------------------------------------------------------------------|
C#|--------------------------------------------------------------------------|
  (0:12)                        (0:25)
e|------------------------------3--3-2-3--3-2-3--3-2-3--3-2-3--3-2-3-5-7-9-11-|
B|----------------------10~---------------------------------------------------|
G|6/7~-9~-10~-9~--7~-9~-------------------------------------------------------|
D|----------------------------------------------------------------------------|
A|----------------------------------------------------------------------------|
E|----------------------------------------------------------------------------|
                              Start again from beginning until end of song
e|-12-11-9-7-5-3-2-----------------------------------------------------------|
B|-----------------3-2-3-5-3-------------------------------------------------|
G|---------------------------------------------------------------------------|
D|---------------------------------------------------------------------------|
A|---------------------------------------------------------------------------|
E|---------------------------------------------------------------------------|

************************************

| /   slide up
| \   slide down
| h   hammer-on
| p   pull-off
| ~   vibrato
| +   harmonic
| x   Mute note
| b   Bend
| pb  Pre-bend
| br  Bend release
| pbr Pre-bend release
| brb Bend release bend

************************************
Tap to rate this tab
 
# A B C D E F G H I J K L M N O P Q R S T U V W X Y Z