Song name
# A B C D E F G H I J K L M N O P Q R S T U V W X Y Z

Satyricon - The Sign Of The Trident tab

TAB by skyturnedred
-------
Band: Satyricon
Song: The Sign of the Trident
Album: Age of Nero (2008)

Tuning 1 step down, DGCFAD

. = palm mute
h = hammer-on
p = pull-off
\ = slide down
/ = slide up


Intro:

D|--------------------------------------|
A|--------------------------------------|   Listen to song
F|--------------------------------------|   for rhythm
C|--------------------------------------|
G|---7---7h8-7----7---8h10-8----8---7---| x4
D|-0----0-------0----0--------0---0-----|
   .    .       .    .        .   .


D|--------------------------------------|
A|--------------------------------------|   Something like this...
F|---9---8-------8------7---------------|   
C|-----9-----------8-----------5---5----|   Mostly let it ring,
G|-7-----------6-----6-----------7------|   listen to song.
D|--------------------------------------|


D|--------------------------------------|
A|--------------------------------------|   Small change to
F|--------------------------------------|   the end of the riff
C|--------------------------------------|
G|---7---7h8-7----7---8h10-8----8-7--7--| x4
D|-0----0-------0----0--------0----0----| 
   .    .       .    .        .    .


Verse:

D|--------------------------------------|
A|--------------------------------------|   This is also the verse riff...
F|---9---8-------8------7---------------|
C|-----9-----------8-----------5---5----|
G|-7-----------6-----6-----------7------|
D|--------------------------------------|



That's all I have for now, might finish this later if I get around to it...
You can email corrections, suggestions etc to skyturnedred@gmail.com
Tap to rate this tab
# A B C D E F G H I J K L M N O P Q R S T U V W X Y Z