Song name
# A B C D E F G H I J K L M N O P Q R S T U V W X Y Z

Satyricon - Transcendental Requiem Of Slaves tab

Song: Transcendental Requiem of Slaves
Artist: Satyricon
Album: Nemesis Divina

Tabbed by: AshandRuin
Email: ashandruin@hotmail.co.uk

Tuning: E A D G B E

Key:
" tremolo
. Palm Mute
/ Slide
h hammer on
p pull off

I managed to tab the electric parts of this song but couldn't figure out the 
clean arpeggios. If someone could tab them out I would appreciate it. 

0.00

e|---------------------------------------------------------------------------|
B|-----------------------8-7-8-----------------------------------------------|
G|---------------------------------------------------------------------------|
D|-------------9--10-9-7-------9-10-9-7-5-4-4--------------------------------|
A|---2-2-3-2-----------------------------------7----2h3p2--------------------|
E|-0------------------------------------------------------5-3-2--------------|

e|---------------------------------------------------------------------------|
B|-----------8-7-8-----------------------------------------------------------|
G|---------------------------------------------------------------------------|
D|-9--10-9-7-------9-10-9-7-5-4-4--------------------------------------------|
A|--------------------------------7----2h3p2---------------------------------|
E|---------------------------------------------5-3-2-------------------------|

e|---------------------------------------------------------------------------|
B|-----------8-7-8-----------------------------------------------------------|
G|---------------------------------------------------------------------------|
D|-9--10-9-7-------9-10-9-7-5-4-4--------------------------------------------|
A|--------------------------------7----2h3p2----------2----------------------|
E|---------------------------------------------5-3-2--0----------------------|


0.28

e|---------------------------------------------------------------------------|
B|---------------------------------------------------------------------------|
G|-----9-------7-9-------7---------------------------------------------------|
D|---7----9-10------9-10----10-9---------------------------------------------|
A|---------------------------------------------------------------------------|
E|-5--------------------------------repeat until fade out--------------------|

Fades into some random arpeggios...


1.58

e|---------------------------------------------------------------------------|
B|---------------------------------------------------------------------------|
G|---------------------------------------------------------------------------|
D|---------------------------------------------------------------------------|
A|-9-9-9-8--9-9-9-10---x4--9-------------------------------------------------|
E|-7-7-7-6--7-7-7--8-------7-------------------------------------------------|

More random arpeggios


2.50

e|---------------------------------------------------------------------------|
B|---------------------------------------------------------------------------|
G|---------------------------------------------------------------------------|
D|---------------------------------------------------------------------------|
A|-2-------------------------------------------------------------------------|
E|-0-------------------------------------------------------------------------|


3.10

e|---------------------------------------------------------------------------|
B|---------------------------------------------------------------------------|
G|---------------------------------------------------------------------------|
D|---4----10-----------------------------------------------------------------|
A|-2-2--8--8-----------------------------------------------------------------|
E|-0----6-----repeat until end-----------------------------------------------|
Tap to rate this tab
# A B C D E F G H I J K L M N O P Q R S T U V W X Y Z