Song name
# A B C D E F G H I J K L M N O P Q R S T U V W X Y Z

Satyricon - Last Man Standing tab

                               LAST MAN STANDING
                            As recorded by Satyricon
                      (From the 2008 Album THE AGE OF NERO)

Words and Music by Sigurd "Satyr" Wongraven
Arranged by Sigurd "Satyr" Wongraven
Transcribed by BaronLundi

Tuning (D G C F A D)

Q=115
4/4
                                  ~~~
  H.       Q       Q  Q  E +E    +Q     E E E E E E  Q   4x
|--------------||---------------------|------------------||
|--------------||o--------------------|-----------------o||
|--------------||---------------------|------------------||
|--------------||---------------------|-9-8--------------||
|--------------||o-9--9---------------|-7-6-8-7-4-5-10--o||
|---------12\--||--7--7--7-(7)b8-(7)--|-----6-5-2-3--8---||


   5/4
                                  ~~~
     Q  Q  Q  Q  Q     Q  +Q     +H.
||-------------------|-------------------||
||o------------------|------------------o||
||-------------------|-------------------||
||-------------------|-------------------||
||o-/5--5--5--5--5\--|------------------o||
||--/7--7--7--7--7\--|-2--(2)b3--(2)-----||


 4/4
                                ~~~~~~~~
   Q  Q  Q  Q    Q   Q  +Q     +Q     W
|--------------|--------------------|------|
|--------------|--------------------|------|
|--------------|--------------------|------|
|--------------|--------------------|------|
|-/5--5--5--5--|-5\-----------------|------|
|-/7--7--7--7--|-7\--2--(2)b3--(2)--|-1----|


                                      ~~~
   E E E E E E  Q      Q  Q  E +E    +Q     E E E E E E  Q   4x
|------------------||---------------------|------------------||
|------------------||o--------------------|-----------------o||
|------------------||---------------------|------------------||
|------------------||---------------------|-9-8--------------||
|-10-9-6-5-2-3-10--||o-9--9---------------|-7-6-8-7-4-5-10--o||
|--8-7-4-3-0-1--8--||--7--7--7-(7)b8-(7)--|-----6-5-2-3--8---||


   5/4
                                  ~~~
     Q  Q  Q  Q  Q     Q  +Q     +H.
||-------------------|-------------------||
||o------------------|------------------o||
||-------------------|-------------------||
||-------------------|-------------------||
||o-/5--5--5--5--5\--|------------------o||
||--/7--7--7--7--7\--|-2--(2)b3--(2)-----||


 4/4
                                ~~~~~~~~
   Q  Q  Q  Q    Q   Q  +Q     +Q     W
|--------------|--------------------|------|
|--------------|--------------------|------|
|--------------|--------------------|------|
|--------------|--------------------|------|
|-/5--5--5--5--|-5\-----------------|------|
|-/7--7--7--7--|-7\--2--(2)b3--(2)--|-1----|


   E E E E E E  Q       S S S S Q  S S S S S S E  7x  S S S S Q  a Q  a Q
|------------------||-----------------------------||-----------------------|
|------------------||o---------------------------o||-----------------------|
|------------------||-----------------------------||-----------------------|
|------------------||-----------------------------||-----------------------|
|-10-9-6-5-2-3-10--||o-/9-9-9-9-9--9-8-8-8-8-5-5-o||-/9-9-9-9-9--9-8--8-5--|
|--8-7-4-3-0-1--8--||--/7-7-7-7-7--7-6-6-6-6-3-3--||-/7-7-7-7-7--7-6--6-3--|


    E E E E E E E E  3x E E E E  E  E  E  E
||-------------------||----------------------|
||o-----------------o||----------------------|
||-------------------||----------------------|
||-------------------||----------------------|
||o-----------------o||-------------4-----4--|
||--0-2-2-2-3-2-1-2--||-3-2-3-2-/6-(6)-6-(6)-|


    E E E E E E E E  3x E E E E  E  E  E  E
||-------------------||----------------------|
||o-----------------o||----------------------|
||-------------------||----------------------|
||-------------------||----------------------|
||o-----------------o||-------------4-----4--|
||--0-2-2-2-3-2-1-2--||-3-2-3-2-/6-(6)-6-(6)-|


                   ~~~~~                            ~~~~~
    Q  Q  Q  Q     Q     H.       3x Q  Q  Q  Q     Q     Q  E E E E
||--------------|-----------------||-------------|------------------|
||o-------------|----------------o||-------------|------------------|
||--------------|-----------------||-------------|------------------|
||--------------|-----------------||-------------|------------------|
||o-7--9--9-----|----------------o||-7--9--9-----|------------------|
||-----------0--|-[2]b3--2--------||----------0--|-[2]b3--2--3-2-1-2|


    E E E E E E E E  3x E E E E  E  E  E  E
||-------------------||----------------------|
||o-----------------o||----------------------|
||-------------------||----------------------|
||-------------------||----------------------|
||o-----------------o||-------------4-----4--|
||--0-2-2-2-3-2-1-2--||-3-2-3-2-/6-(6)-6-(6)-|


    E E E E E E E E  3x E E E E  E  E  E  E
||-------------------||---------------------|
||o-----------------o||---------------------|
||-------------------||---------------------|
||-------------------||---------------------|
||o-----------------o||-------------4-----4-|
||--0-2-2-2-3-2-1-2--||-3-2-3-2-/6-(6)-6-(6)|


     S S S S Q  S S S S S S E  3x  S S S S Q  a Q  a Q
||-----------------------------||-----------------------|
||o---------------------------o||-----------------------|
||-----------------------------||-----------------------|
||-----------------------------||-----------------------|
||o-/9-9-9-9-9--9-8-8-8-8-5-5-o||-/9-9-9-9-9--9-8--8-5--|
||--/7-7-7-7-7--7-6-6-6-6-3-3--||-/7-7-7-7-7--7-6--6-3--|


                   ~~~
    Q  Q  E +E    +Q     E E E E E E  Q  6x
||---------------------|-----------------||
||o--------------------|----------------o||
||---------------------|-----------------||
||---------------------|-9-8-------------||
||o-9--9---------------|-7-6-8-7-4-5-10-o||
||--7--7--7-(7)b8-(7)--|-----6-5-2-3--8--||


   5/4
                                  ~~~
     Q  Q  Q  Q  Q     Q  +Q     +H.
||-------------------|-------------------||
||o------------------|------------------o||
||-------------------|-------------------||
||-------------------|-------------------||
||o-/5--5--5--5--5\--|------------------o||
||--/7--7--7--7--7\--|-2--(2)b3--(2)-----||


 4/4
                                ~~~~~~~~
   Q  Q  Q  Q    Q   Q  +Q     +Q     W
|--------------|--------------------|------|
|--------------|--------------------|------|
|--------------|--------------------|------|
|--------------|--------------------|------|
|-/5--5--5--5--|-5\-----------------|------|
|-/7--7--7--7--|-7\--2--(2)b3--(2)--|-1----|


                                      ~~~
   E E E E E E  Q      Q  Q  E +E    +Q     E E E E E E  Q   3x
|------------------||---------------------|------------------||
|------------------||o--------------------|-----------------o||
|------------------||---------------------|------------------||
|------------------||---------------------|-9-8--------------||
|-10-9-6-5-2-3-10--||o-9--9---------------|-7-6-8-7-4-5-10--o||
|--8-7-4-3-0-1--8--||--7--7--7-(7)b8-(7)--|-----6-5-2-3--8---||


                 ~~~
  Q  Q  E +E    +Q      E E E E E E  Q    Q  Q  H
|--------------------|------------------|------------*|
|--------------------|------------------|------------*|
|--------------------|------------------|------------*|
|--------------------|------------------|------------*|
|-9--9---------------|-10-9-6-5-2-3-10--|-9--9-------*|
|-7--7--7-(7)b8-(7)--|--8-7-4-3-0-1--8--|-7--7-------*|


Duration Legend
---------------
W - whole; H - half; Q - quarter; E - 8th; S - 16th; T - 32nd; X - 64th; a - acciaccatura
+ - note tied to previous; . - note dotted; .. - note double dotted

Tablature Legend
----------------
 h   - hammer-on
 p   - pull-off
 b   - bend
 pb  - pre-bend
 r   - bend release (if no number after the r, then release immediately)
 /\  - slide into or out of (from/to "nowhere")
 s   - legato slide
 S   - shift slide
  - natural harmonic
[n]  - artificial harmonic
n(n) - tapped harmonic
 ~   - vibrato
 tr  - trill
 T   - tap
 TP  - trem. picking
 PM  - palm muting
\n/  - tremolo bar dip; n = amount to dip
 \n  - tremolo bar down
 n/  - tremolo bar up
/n\  - tremolo bar inverted dip
 =   - hold bend; also acts as connecting device for hammers/pulls
 <>  - volume swell (louder/softer)
 x   - on rhythm slash represents muted slash
 o   - on rhythm slash represents single note slash

Misc Legend
-----------
 |  - bar
||  - double bar
||o - repeat start
o|| - repeat end
*|  - double bar (ending)
 :  - bar (freetime)
 $  - Segno
 &  - Coda
Tempo markers -  = BPM(8/16=s8/s16), where s8 = swing 8ths, s16 = swing 16ths
Tap to rate this tab
 
# A B C D E F G H I J K L M N O P Q R S T U V W X Y Z