Guitaretab - guitar tabs
Song name
# A B C D E F G H I J K L M N O P Q R S T U V W X Y Z

Satyricon - Du Som Hater Gud tab

-------------------------------------------------------------------------------
			     SATYRICON - Du som hater Gud
-------------------------------------------------------------------------------
Tabbed by: UNHOLYFILOSOFEM
Email: youbastards_sjr@hotmail.com

Tuning: Standard

Riff A
e|---------------------------------------------------------------------------|
B|---------------------------------------------------------------------------|
G|---------------------------------------------------------------------------|
D|-2-2-2-2-2-2-2-2-3-3-2-2-0-0-2-2-3-2-0-0-6-6-6-6-6-6-6-6-------------------|
A|-0-0-0-0-0-0-0-0-0-0-0-0-0-0-0-0-0-0-0-0-4-4-4-4-4-4-4-4-------------------|
E|---------------------------------------------------------------------------|
 x 7

Riff B
e|---------------------------------------------------------------------------|
B|---------------------------------------------------------------------------|
G|---------------------------------------------------------------------------|
D|-2"---3"---2"---0"---2"---3"-2"-0"-----------------------------------------|
A|-----------------------------------3"---2"---3"-2"-3"----------------------|
E|---------------------------------------------------------------------------|
 x 8

Riff A x 4

Riff C
e|-----------------------------------------------------------------------------------|
B|-----------------------------------------------------------------------------------|
G|-----------------------------------------------------------------------------------|
D|-2-2-2-2-2-2-2-2-3-3-3-3-3-3-3-3-5-5-5-5-5-5-5-5-9-9-9-10-10-10-9-9----------------|
A|-0-0-0-0-0-0-0-0-0-0-0-0-0-0-0-0-0-0-0-0-0-0-0-0-0-0-0--0--0--0-0-0-3-3-3-2-2-2-5-5|
E|--------------------------------------------------------------------1-1-1-0-0-0-3-3|
 x 6
[ Tab from: http://www.guitaretab.com/s/satyricon/43535.html ]
Riff D
e|---------------------------------------------------------------------------|
B|---------------------------------------------------------------------------|
G|---------------------------------------------------------------------------|
D|-2-2-2-2-8-7-8-------------------------------------------------------------|
A|-0-0-0-0-6-5-6-------------------------------------------------------------|
E|---------------------------------------------------------------------------|
 x 4

Riff A x 4
Riff D x 4
Riff B x 2

Riff E
e|---------------------------------------------------------------------------|
B|---------------------------------------------------------------------------|
G|---------------------------------------------------------------------------|
D|----7----------------------------------------------------------------------|
A|-7--5--7--6--7--4--7--2----------------------------------------------------|
E|-5-----5--4--5--2--5--0----------------------------------------------------|
 x 4

Riff F
e|---------------------------------------------------------------------------|
B|---------------------------------------------------------------------------|
G|---------------------------------------------------------------------------|
D|----------7----------------------------------------------------------------|
A|-7--6--7--5--7--6--7--2----------------------------------------------------|
E|-5--4--5-----5--4--5--0----------------------------------------------------|

Riff E x 2
Riff F x 1

Ends with Riff F like this (would be the second repetition)
Riff F
e|---------------------------------------------------------------------------|
B|---------------------------------------------------------------------------|
G|---------------------------------------------------------------------------|
D|----------7----------------------------------------------------------------|
A|-7--6--7--5--7--6--7-------------------------------------------------------|
E|-5--4--5-----5--4--5-------------------------------------------------------|

ENJOY

| /  slide up
| \  slide down
| h  hammer-on
| p  pull-off
| ~  vibrato
| +  harmonic
| x  Mute note
| "  Tremolo Picking
===============================================================================
Related for Du Som Hater Gud tab