Guitaretab - guitar tabs
Song name
# A B C D E F G H I J K L M N O P Q R S T U V W X Y Z

Satyricon - Pentagram Burns tab

BAND - SATYRICON
SONG - THE PENTAGRAM BURNS
ALBUM - NOW,DIABOLICLE
TUNING - Eb (Eb,Bb,Gb,Db,Ab,Eb,)

all music&lyrics by - satyr(vox,strings),frost(battery)

* - palm mute
/ - slide
~ - let note ring out
(12) - harmonic
p - pull off

 this song is 100% i saw satyricon play this live..enjoy and please rate.
 'the pentagram burns..........'




  intro                   1st,2nd end
e-------------------]---------------------------]
b-------------------]---------------------------]
g-------------------]---------------------------]
d--9-9-9-9-9-9-9-9--]---------------------------]
a--7-7-7-7-7-7-7-7--]-10/13-13-13--10/14-14-14--]
e--0-0-0-0-0-0-0-0--]--8/11-11-11---8/12-12-12--]



     3rd end                         4th end
e-------------------------------]--------------------]
b-------------------------------]--------------------]
g-------------------------------]--------------------]
d--10/13-13-13--13/14/13-13-13--]--10/14-14-14-------]
a---8/11-11-11--11/12/11-11-11--]---8/12-12-12--3/6--]
e-------------------------------]---------------1/4--]


  riff 1 (verse)

e------0~------------x2]------0~-----------------]
b------0~--------------]------0~-----------------]
g------0~--------------]------0~-----------------]
d--2~--2~---------3-5--]--2~--2~----------3-4-5--]
a--2~-------------1-3--]--2~--------------1-2-3--]
e--0~------3p1-1~------]--0~------3p1-1~---------]


'hellbent & raw....'
'armed to the core...'
'walks with the wind...'
'determined & strong...'
'inherit his laws...'
'adopt & obey...'


  
   pre-chorus (gtr1)gtr 2 plays verse riff x2
[ Tab from: http://www.guitaretab.com/s/satyricon/80644.html ]
e--------------------------]---------------------------------]--------------
b--(12)~--(12)~--12--------]------12~----12~--(12)--12-------]----------12~-
g------------------15--15~-]--------------------------15--15~]--------------
d--------------------14----]---7--9~~-------------------14---]-------7--9~--
a--------------------------]-7~------------------------------]----7~--------
e--------------------------]-0~----------12~-----------------]----0~--------


intro riff x2
verse riff
pre-chorus (gtr1)(gtr 2 plays verse riff x2)
intro riff x2 


  interlude (gtr 1 x2)
e--------------]--------------------------------]---------------------------
b--------------]--------------------------------]---------------------------
g--------------]--------------------------------]---------------------------
d--9~~~~~~~~~~~]------9-10-9-7---7-6---6~~-6~~--]-----9-10-9-7---7-6---7~-7~
a--7~~~~~~~~~~~]--7-7----------8----7-7---------]--7-7---------8----7-7-----
e--0~~~~~~~~~~~]--0------------------0----------]--0-----------------0------


e-------------------------]
b-------------------------]
g-------------------------]
d--9~~~~----9~~~~----7-7--]
a--7~~~~----7~~~~----7-7--]
e--0~~~~----0~~~~----5-5--]

  gtr 1 (x2)
]--------------------------------]---------------------------]
]--------------------------------]---------------------------]
]--------------------------------]---------------------------]
]------9-10-9-7---7-6---6~~-6~~--]-----9-10-9-7---7-6---7~-7~]
]--7-7----------8----7-7---------]--7-7---------8----7-7-----]
]--0------------------0----------]--0-----------------0------]


  (gtr 2 comes in for the 2nd time to harmonise with gtr 1)

e-------------------------------]------------------------------]
b-------------------------------]------------------------------]
g---7-8-7-5--4-5-4-------4~-4~--]---9-10-9-7--7-6-------6~-6~--]
d--6---------------6-5-6--------]--7---------8----7-6-7--------]
a-------------------------------]------------------------------]
e-------------------------------]------------------------------]


verse x2
pre-chorus
intro riff x2

 thats it.please rate..i put the lyrics because this is a brutal song
 black metal for eternity.
Related for Pentagram Burns tab