Guitaretab - guitar tabs
Song name
# A B C D E F G H I J K L M N O P Q R S T U V W X Y Z

Satyricon - Delirium tab

BAND - "SATYRICON"
SONG - "DELIRIUM"
ALBUM - "NOW,DIABOLICLE"

MUSIC&LYRICS - SATYR(vox,strings),FROST(battery)

TUNING - 1/2 STEP DOWN (Eb,Bb,Gb,Db,Ab,Eb,)

* - palm mute
/ - slide
~ - let ring out
p - pull off


 this is the first tab for this song. its pretty accurate this is arranged
 for one guitar.i didnt tab the harmonised parts you dont really need them
 unless your playing it with 2 guitars.any enjoy and plz rate!!




   intro/gtr 1 clean

eb------------------]-----------------]
bb-----------8~-----]-------------8~--]
gb-----9-10~----9~--]------9-10~--9~--]
db------------------]-----------------]
ab------------------]-----------------]
eb--0~--------------]--0~-------------]

   
   intro/gtr 2 distortion

eb------------x4]------------5th time]
bb--------------]--------------------]
gb--------------]--------------------]
db--2~--3~--2~--]-----------------2--]
ab--2~--3~--2~--]--2-2-2-2-2-2-22-2--]
eb--0~--1~--0~--]--0-0-0-0-0-0-00-0--]
                   * * * * * * **


   verse

eb----------------]----------------]-------------------------------x4]
bb-----------5-4--]-----------6-5--]-----------5-4-------------------]
gb-------5-4------]-------5-4------]-------5-4-----------------------]
db-----2----------]-----2----------]-----2---------------------------]
ab--2-------------]--2-------------]--2-----------------3/5/6---3/5--]
eb--0-------------]--0-------------]--0-----------------1/3/4-0-1/3--]
    *                *                *                       *
 "a bitter blow"  "a darkened maze" "can take you down"



  chorus

eb--0-0-0--------------------------x4]
bb--0-0-0----------------------------]
gb--0-0-0----------------------3~----]
db--2-2-2----3-3-2-2~--3-2-2~--1~----]
ab-----------3-3-2-2~--3-2-2~--------]
eb-----------1-1-0-0~--1-0-0~--------]
  "delirium!"


  riff 2
[ Tab from: http://www.guitaretab.com/s/satyricon/86759.html ]
eb-----------------------------------x4]
bb-------------------------------------]
gb----------------------6-5-----5/6----]
db----6-5---6-5---7-6------6-7--5/6----]
ab--3-----3-----4-----4---------3/4----]
eb-------------------------------------]
    *     *     *     *


eb--0-0-0--------------------------x4]
bb--0-0-0----------------------------]
gb--0-0-0----------------------3~----]
db--2-2-2----3-3-2-2~--3-2-2~--1~----]
ab-----------3-3-2-2~--3-2-2~--------]
eb-----------1-1-0-0~--1-0-0~--------]
  "delirium!"



 intro




eb--------------------x3]---------------------4th-time]
bb----------------------]-----------------------------]
gb----------------------]-----------------------------]
db--9~----10~-9~----9~--]--9~----10~-9~----9~--6/7/6--]
ab--7~--8~----------7~--]--7~--8~----------7~--7/8/7--]
eb--0~------------0-0~--]--0~------------0-0~-0-------]


 verse x 4
 chorus x 4
 verse x 4
 chorus x 4


 interlude


eb-----------------------------------x2]
bb-------------------------------------]
gb----------------------6-5-----5/6----]
db----6-5---6-5---7-6------6-7--5/6----]
ab--3-----3-----4-----4---------3/4----]
eb-------------------------------------]
    *     *     *     *



eb------------------x3]------4th-time--]
bb--------------------]----------------]
gb--8-7---7-6--6/7----]-------7/6------]
db------5------4/5-5--]--5-5--5/4-7/6--]
ab-----------------5--]--5-5------5/4--]
eb-----------------3--]--3-3-----------]
        *



eb-----------------------------------x4]
bb-------------------------------------]
gb----------------------6-5-----5/6----]
db----6-5---6-5---7-6------6-7--5/6----]
ab--3-----3-----4-----4---------3/4----]
eb-------------------------------------]
    *     *     *     *

  fill 1
eb------]
bb------]
gb------]
db------]
ab------]
eb--1b--]



   outro

eb--------------------]
bb--------------------]
gb--------------------]
db--9~---10~-9~-------]
ab--7~-8~---------7~--]
eb--0~----------0~----]




 thats all plz rate...keep it brutal!!
Related for Delirium tab
×
Delirium