Song name
# A B C D E F G H I J K L M N O P Q R S T U V W X Y Z

Sausage - Prelude To Fear tab

By ear....
Intro
e|-15------|
B|-15------|
G|---------|
D|---------|
A|---------|
E|---------|

Twangy part

e|----------------------------|
B|----------------------------|
G|-----6--------7--7-----9-8--|
D|---7--7--/9-9--9--/7-7------|
A|-/7-7--7--------------------|
E|----------------------------|

Heavy Distorted part
e|-----------------------------------------|
B|-----------------------------------------|
G|-----------------------------------------|
D|-----------------------------------------|
A|-5-4-4-5-4-5-4-4-5-4-5-4-4-5-7-5-4-4-5-4-|
E|-3-2-2-3-2-3-2-2-3-2-3-2-2-3-5-3-2-2-3-2-|
Tap to rate this tab
 
# A B C D E F G H I J K L M N O P Q R S T U V W X Y Z