Song name
# A B C D E F G H I J K L M N O P Q R S T U V W X Y Z

Sausage - Prelude To Fear tab

Artist: Sausage
Song: Prelude to Fear
Album: Riddles are Abound Tonight (1994)
Tuning: standard
Tabbed by: Jeremy Hill 

Intro:
e|--15--|
B|--15--|
G|------|
D|------|
A|------|
E|------|


e|--------------------------|
B|--------------------------|
G|--0/5x5--0/6x6--0/8x7-----|
D|--------------------------| x8
A|--------------------------|
E|--------------------------|


e|------------------------------------|
B|------------------------------------|
G|------------------------------------|
D|---5--4--5-5-5-5--5--4--5-6-6-6-6---|
A|---5--4--5-5-5-5--5--4--5-6-6-6-6---| x2
E|---3--2--3-3-3-3--3--2--3-4-4-4-4---|


e|--------------------------|
B|--------------------------|
G|--0/5x5--0/6x6--0/8x7-----|
D|--------------------------| x6
A|--------------------------|
E|--------------------------|


e|------------------------------------|
B|------------------------------------|
G|------------------------------------|
D|---5--4--5-5-5-5--5--4--5-6-6-6-6---|
A|---5--4--5-5-5-5--5--4--5-6-6-6-6---| x4
E|---3--2--3-3-3-3--3--2--3-4-4-4-4---|


e|--------------------------|
B|--------------------------|
G|--0/5x5--0/6x6--0/8x7-----|
D|--------------------------| x8
A|--------------------------|
E|--------------------------|


e|------------------------------------|
B|------------------------------------|
G|------------------------------------|
D|---5--4--5-5-5-5--5--4--5-6-6-6-6---|
A|---5--4--5-5-5-5--5--4--5-6-6-6-6---| x2
E|---3--2--3-3-3-3--3--2--3-4-4-4-4---|


e|--------------------------|
B|--------------------------|
G|--0/5x5--0/6x6--0/8x7-----|
D|--------------------------| x6
A|--------------------------|
E|--------------------------|


e|------------------------------------|
B|------------------------------------|
G|------------------------------------|
D|---5--4--5-5-5-5--5--4--5-6-6-6-6---|
A|---5--4--5-5-5-5--5--4--5-6-6-6-6---| x8
E|---3--2--3-3-3-3--3--2--3-4-4-4-4---|


e|--------------------------|
B|--------------------------|
G|--0/5x5--0/6x6--0/8x7-----|
D|--------------------------| x10
A|--------------------------|
E|--------------------------|


e|--------------------------|
B|--------------------------|
G|--0/5x5--0/6x6--0/8-------|
D|--------------------------|
A|--------------------------|
E|--------------------------|
Tap to rate this tab
# A B C D E F G H I J K L M N O P Q R S T U V W X Y Z