Song name
# A B C D E F G H I J K L M N O P Q R S T U V W X Y Z

Savage Garden - To The Moon And Back chords

Highlighted       Show chord diagrams
Savage Garden - To the Moon and Back

Cappo 3

Intro: 
e:6/8--8-----8--8-----8--8--8/6--6---6--6----6--6--6/8--8----8--8---|
B:6/8-----8--------8--------8/6----6------6--------6/8----8--------8|
G:------------------------------------------------------------------|
D:------------------------------------------------------------------|
A:------------------------------------------------------------------|
E:------------------------------------------------------------------|

e:--8--8--8/4---4----4--4---|
B:--------8/4-----4--------4|
G:--------------------------|
D:--------------------------|
A:--------------------------|
E:--------------------------| X2
or Intro (Am  G  Em  F)x2

F            Am                 G
She's taking time making up the reasons

Em                 F
To justify all the hurt inside

          Am                            G
Guess she knows from the smiles and the look in their eyes

     Em                           F
Everyone's got a theory about the bitter one

                Am
They're saying, "Mama never loved her much"

     G
And, "Daddy never keeps in touch

Em                             F
That's why she shies away from human affection"

    Am             
But somewhere in a private place

    G        
She packs her bags for outer space

Em                            F
And now she's waiting for the right kind of pilot to come
(no Chords)
And she'll say to him She's sayin


Chorus (start)
Am                          G           Em
I would fly to the moon and back if you be...

       F     G
If you be my baby

Am                      G                  Em
I've got a ticket for a world where we, we belong

             F     G
So would you be my baby?
Chorus (End)


Am                   G                  Em
She can't remember a time when she felt needed

                             F
If love was red then she was colour blind

        Am                             G
All her friends they've been tried for treason

                     Em
And crimes that were never defined

               Am                           G
She's saying, "Love is like a barren place, and reaching out for human faith

   Em                       F                G
is,Is like a journey I just don't have a map for"

        Am                             G
So baby gonna take a dive and push the shift to overdrive

Em                      F
Send a signal that shes hanging all her hopes on the stars
(no Chords)
What a pleasent dream Just saying

Chorus again x1

Am   G   Em   F
Hold on, hold on ...

Solo
e:6h8--8--8--6--8------------------------------------------------------------|
B:-----------------6h8--6--6--11--9--8h9r8----------------------------------8|
G:------------------------------------------8--10--------------------8--10---|
D:-------------------------------------------------8--10---8--8--10----------|
A:---------------------------------------------------------------------------|
E:---------------------------------------------------------------------------|

e:-----------------------------------------8--8-----10--10------11-11-11/13--|
B:--9--11--9--8-----------------------6/8--------8----------8----------------|
G:---------------10--8--7--8--10---------------------------------------------|
D:--------------------------------10-----------------------------------------|
A:---------------------------------------------------------------------------|
E:---------------------------------------------------------------------------|

e:13----10--11--13--10h11p10----------------------13~--13--11--10------------|
B:---------------------------11----11/13--11-11--------------------11---11/13|
G:------------------------------12------------------------------------12-----|
D:---------------------------------------------------------------------------|
A:---------------------------------------------------------------------------|
E:---------------------------------------------------------------------------|

e:------------------|
B:----11------------|
G:-------10b11r10---|
D:----------------10|
A:------------------|
E:------------------|

Am                             G
Mamma never loved her much and Daddy never keeps in touch

Em                            F
Thats why she shies away from human affection

Am                               G
But somewhere in a private place she packs her bag for outer space

Em                           F
And now shes waiting for the right kind of pilot to come
(no Chords)
And she'll say to him Just saying

Chorus again x2 ... yeah
Tap to rate this tab
# A B C D E F G H I J K L M N O P Q R S T U V W X Y Z