Song name
# A B C D E F G H I J K L M N O P Q R S T U V W X Y Z

Savage Garden - I Knew I Loved You tab

Song Title: I KNEW I LOVED YOU
Popularized by: Savage Garden
Transcribed by: Kiel_Samonte14
Email add: darrylfortuno14@yahoo.com


(Intro)
e|-----0-0-----0---|-------0-|-------2---4---5-|-----5-4-|-----0-2-|-------0-------|
B|-2-3-----------3-|-----0---|-----2-------2---|---------|---------|-----3-3-3-----|
G|-----------------|---------|-----------------|---------|---------|---2---2---2---|
D|-----------2-----|---4-----|---6-----0-------|---------|---------|-0-----0-----0-|
A|---------0-------|-2-------|-4---------------|---4-----|---2-----|---------------|
E|-----------------|---------|-----------------|-2-------|-0-------|---------------|

(Verse 1)
e|-----------------------------|-------------------------------|-----------0-------------------|
B|---0-0-0---2-0-0-------3-----|---0-0-0---2-0-0-----------0---|---0-0-0-----2-3-----3-----0---|
G|-----2---2-----4-3---3---2---|-----2---2-----4-3---3---2---2-|-----2---2-----2-2---2---2---2-|
D|---------------------0-----0-|---------------------0-0-------|---------------0---0---0-------|
A|-0---0---2-----4---4---------|-0---0---2-----4---4-----------|-0---0---2---------------------|
E|-----------------------------|-------------------------------|-------------------------------|
   
e|---------------------0-|
B|---0-0-0---2---3-----0-|
G|-----2---2-----2-2---1-|
D|---------------0---0-2-|
A|-0---0---2---2-------2-|
E|---------------------0-|

(Refrain)
e|-0-0-----------0---------|-0-------0---0h2-0-----|
B|---0-----------3-3-2-0---|-0-------0---3-----3---|
G|-----2---1-2---------2-2-|---2---1-------------2-|
D|---------------0-----0-0-|-------------0---------|
A|---2---2-4---4-----------|-2---2-4---4-----------|
E|-------------------------|---------------------0-|

(Chorus)
e|-----0-0-----0---------------|-----0-0---5---4-5---0h2-0----|
B|-2-3-----------3-2---0-2-----|-2-3-------5---5-----3----3---|
G|---------------2-----2-------|----------------------------2-|
D|-----------2---------0-----2-|---------------------0--------|
A|---------0-----2---2---------|---------0---0-2---2----------|
E|-------------------------0---|----------------------------0-|

e|-----0-0-----0---------------|-----0-0---5---5/7-5---0h2-0--------0---|
B|-2-3-----------3-2---0-2-----|-2-3-------5---5/7-----3----3-------0---|
G|---------------2-----2-------|------------------------------2-------1-|
D|-----------2---------0-----2-|-----------------------0----------2-----|
A|---------0-----2---2---------|---------0---0--------------------------|
E|-------------------------0---|---------------5/7---7----------0-------|

(Verse 2)
e|-----------------------------|-------------------------------|-----------0-------------------|
B|---0-0-0---2-0-0-------3-----|---0-0-0---2-0-0-----------0---|---0-0-0-----2-3-----3-----0---|
G|-----2---2-----4-3---3---2---|-----2---2-----4-3---3---2---2-|-----2---2-----2-2---2---2---2-|
D|---------------------0-----0-|---------------------0-0-------|---------------0---0---0-------|
A|-0---0---2-----4---4---------|-0---0---2-----4---4-----------|-0---0---2---------------------|
E|-----------------------------|-------------------------------|-------------------------------|

e|---------------------0-|
B|---0-0-0---2---3-----0-|
G|-----2---2-----2-2---1-|
D|---------------0---0-2-|
A|-0---0---2---2-------2-|
E|---------------------0-|

(Bridge)
C#m – F#m – D – A – E
F#m – D – A – F#m – E – D

(Higher Chorus)
Bb – Cm – Eb – F
End in Bb…






“bahala na kayo sa lyrics hehehe…”
Tap to rate this tab
 
# A B C D E F G H I J K L M N O P Q R S T U V W X Y Z