Song name
# A B C D E F G H I J K L M N O P Q R S T U V W X Y Z

Savages - She Will tab

Savages - She Will
From the album "Silence Yourself" (Matador Records 2013).

Tabbed by Isaac Murguia, July 23, 2013.
YouTube: Goadiroth

INTRO:
        A.
e|-----|-------------------------|-------------------------|
B|-----|---------------6---5-----|-------------------------|
G|-5---|-7---7---5-7-----------5-|-2---2---4-----5---4---5-|
D|---0-|-------0-----0---0---0---|-------0---0-0---0---0---|
A|-----|-------------------------|-------------------------|
E|-----|-------------------------|-------------------------|

e|-------------------------|-------------------------|
B|---------8-----6---5-----|---------5-----6---8---6-|
G|-7---7-----------------7-|-5---5-------------------|
D|-------0---0-0---0---0---|-------0---0-0---0---0---| repeat from "A."
A|-------------------------|-------------------------| two more times
E|-------------------------|-------------------------|

e|--------|
B|--(5)---|
G|---7----|
D|--------|
A|--------|
E|--------|

VERSE 1:
e|---------------------------------|
B|---------------------------------|
G|-14---12--9--5--14---12--9--5--7-|
D|---------------------------------|
A|---------------------------------|
E|---------------------------------|

e|---------------------------------------------------|
B|---------------------------------------------------|
G|-5--14---12--9--5--14---12--9--5--14---12--9--5--7-|
D|---------------------------------------------------|
A|---------------------------------------------------|
E|---------------------------------------------------|

Repeat INTRO (x1)

CHORUS: (x2)
e|-----------------------------------------------|
B|-----------------------------------------------|
G|-15-15-15-15--15-15-15-15--15-15-15-17--15--12-|
D|-----------------------------------------------|
A|-13-13-13-13--13-13-13-13--13-13-13-15--13--10-|
E|-----------------------------------------------|

e|-----------------------------------------------|
B|-----------------------------------------------|
G|-14-14-14-14--14-14-14-14--14-14-14-17--12--12-|
D|-----------------------------------------------| don't play last
A|-12-12-12-12--12-12-12-12--12-12-12-15--10--10-| three chords on 2nd rep.
E|-----------------------------------------------|

Repeat INTRO (x1)

VERSE 2:
e|------------------------------------|
B|------------------------------------|
G|-5--14---12--9--5--14---12--9--5--7-|
D|------------------------------------|
A|------------------------------------|
E|------------------------------------|

e|---------------------------------------------------|
B|---------------------------------------------------|
G|-5--14---12--9--5--14---12--9--5--14---12--9--5--7-|
D|---------------------------------------------------|
A|---------------------------------------------------|
E|---------------------------------------------------|

Repeat INTRO (x1)
Repeat CHORUS until the end (about 7x).

End. Please rate!
Tap to rate this tab
 
# A B C D E F G H I J K L M N O P Q R S T U V W X Y Z