Song name
# A B C D E F G H I J K L M N O P Q R S T U V W X Y Z

Savages - Shut Up tab

Savages - SHUT UP

Tuning: Standard

Any corrections/suggestions would be appreciated.


e|-----------------------------------------------------------------|
B|--333333333333---------------------------------------------------|
G|--444444444444-333-----------------------------------------------|
D|---------------444-----------------------------------------------|
A|-----------------------------------------------------------------|
E|-----------------------------------------------------------------|
    - - - - - - - - - (X13)

e|-----------------------------------------------------------------|
B|--333333333333---------------------------------------------------|
G|--444444444444---------------------------------------------------|
D|-----------------------------------------------------------------|
A|-----------------------------------------------------------------|
E|-----------------------------------------------------------------|
    - - - - - - - (x1)


e|-14(14)14(14)14(14)14(14)14(14)14(14)--1212----------------------|
B|-12(12)12(12)12(12)12(12)12(12)12(12)--1212----------------------|
G|-----------------------------------------------------------------|
D|-----------------------------------------------------------------|
A|-----------------------------------------------------------------|
E|-----------------------------------------------------------------|

e|-14(14)14(14)14(14)14(14)14(14)14(14)--1212----------------------|
B|-12(12)12(12)12(12)12(12)12(12)12(12)--1515----------------------|
G|-----------------------------------------------------------------|
D|-----------------------------------------------------------------|
A|-----------------------------------------------------------------|
E|-----------------------------------------------------------------|

e|-14(14)14(14)14(14)14(14)14(14)14(14)--1212----------------------|
B|-12(12)12(12)12(12)12(12)12(12)12(12)--1212----------------------|
G|-----------------------------------------------------------------|
D|-----------------------------------------------------------------|
A|-----------------------------------------------------------------|
E|-----------------------------------------------------------------|

e|-14(14)14(14)14(14)14(14)14(14)14(14)----------------------------|
B|-12(12)12(12)12(12)12(12)12(12)12(12)----------------------------|
G|-----------------------------------------------------------------|
D|-----------------------------------------------------------------|
A|-----------------------------------------------------------------|
E|-----------------------------------------------------------------|
   [         gradually bending        ]


e|-----------------------------------------------------------------|
B|--333333333333---------------------------------------------------|
G|--444444444444-333-----------------------------------------------|
D|---------------444-----------------------------------------------|
A|-----------------------------------------------------------------|
E|-----------------------------------------------------------------|
    - - - - - - - - - (X3)

e|-----------------------------------------------------------------|
B|--333333333333---------------------------------------------------|
G|--444444444444---------------------------------------------------|
D|-----------------------------------------------------------------|
A|-----------------------------------------------------------------|
E|-----------------------------------------------------------------|
    - - - - - - - (x1)


e|-14(14)14(14)14(14)14(14)14(14)14(14)--1212----------------------|
B|-12(12)12(12)12(12)12(12)12(12)12(12)--1212----------------------|
G|-----------------------------------------------------------------|
D|-----------------------------------------------------------------|
A|-----------------------------------------------------------------|
E|-----------------------------------------------------------------|

e|-14(14)14(14)14(14)14(14)14(14)14(14)--1212----------------------|
B|-12(12)12(12)12(12)12(12)12(12)12(12)--1515----------------------|
G|-----------------------------------------------------------------|
D|-----------------------------------------------------------------|
A|-----------------------------------------------------------------|
E|-----------------------------------------------------------------|

e|-14(14)14(14)14(14)14(14)14(14)14(14)--1212----------------------|
B|-12(12)12(12)12(12)12(12)12(12)12(12)--1212----------------------|
G|-----------------------------------------------------------------|
D|-----------------------------------------------------------------|
A|-----------------------------------------------------------------|
E|-----------------------------------------------------------------|

e|-14(14)14(14)14(14)14(14)14(14)14(14)----------------------------|
B|-12(12)12(12)12(12)12(12)12(12)12(12)----------------------------|
G|-----------------------------------------------------------------|
D|-----------------------------------------------------------------|
A|-----------------------------------------------------------------|
E|-----------------------------------------------------------------|
   [         gradually bending        ]


e|-----------------------------------------------------------------|
B|---5--3--------7--5----------------------------------------------|
G|---6--4--------8--6----------------------------------------------|
D|-----------------------------------------------------------------|
A|-----------------------------------------------------------------|
E|-----------------------------------------------------------------|
            (x2)

e|-----------------------------------------------------------------|
B|----------35-3------------356666666------------------------------|
G|------4-44----4------4-44----------------------------------------|
D|-----------------------------------------------------------------|
A|-----------------------------------------------------------------|
E|-----------------------------------------------------------------|
             (x2)


e|-----------------------------------------------------------------|
B|--333333333333---------------------------------------------------|
G|--444444444444-333-----------------------------------------------|
D|---------------444-----------------------------------------------|
A|-----------------------------------------------------------------|
E|-----------------------------------------------------------------|
    - - - - - - - - - (X9)

e|-----------------------------------------------------------------|
B|--333333333333---------------------------------------------------|
G|--444444444444---------------------------------------------------|
D|-----------------------------------------------------------------|
A|-----------------------------------------------------------------|
E|-----------------------------------------------------------------|
    - - - - - - - (x1)


e|-14(14)14(14)14(14)14(14)14(14)14(14)--1212----------------------|
B|-12(12)12(12)12(12)12(12)12(12)12(12)--1212----------------------|
G|-----------------------------------------------------------------|
D|-----------------------------------------------------------------|
A|-----------------------------------------------------------------|
E|-----------------------------------------------------------------|

e|-14(14)14(14)14(14)14(14)14(14)14(14)--1212----------------------|
B|-12(12)12(12)12(12)12(12)12(12)12(12)--1515----------------------|
G|-----------------------------------------------------------------|
D|-----------------------------------------------------------------|
A|-----------------------------------------------------------------|
E|-----------------------------------------------------------------|

e|-14(14)14(14)14(14)14(14)14(14)14(14)--1212----------------------|
B|-12(12)12(12)12(12)12(12)12(12)12(12)--1212----------------------|
G|-----------------------------------------------------------------|
D|-----------------------------------------------------------------|
A|-----------------------------------------------------------------|
E|-----------------------------------------------------------------|

e|-14(14)14(14)14(14)14(14)14(14)14(14)----------------------------|
B|-12(12)12(12)12(12)12(12)12(12)12(12)----------------------------|
G|-----------------------------------------------------------------|
D|-----------------------------------------------------------------|
A|-----------------------------------------------------------------|
E|-----------------------------------------------------------------|
   [         gradually bending        ]


e|-----------------------------------------------------------------|
B|---5--3--------7--5----------------------------------------------|
G|---6--4--------8--6----------------------------------------------|
D|-----------------------------------------------------------------|
A|-----------------------------------------------------------------|
E|-----------------------------------------------------------------|
            (x2)

e|-----------------------------------------------------------------|
B|-----------------------------------------35-3---------356666666--|
G|---------------------------44-------4-44------4--4-44------------|
D|---------------224-----222---5-----------------------------------|
A|-222222222-555------555------------------------------------------|
E|-----------------------------------------------------------------|
   [           x7                ]   [             x5              ]


************************************
| /   slide up
| \   slide down
| h   hammer-on
| -   Palm Mute
| p   pull-off
| ~   vibrato
| +   harmonic
| x   Mute note
| b   Bend
| pb  Pre-bend
| br  Bend release
| pbr Pre-bend release
| brb Bend release bend

************************************
Tap to rate this tab
# A B C D E F G H I J K L M N O P Q R S T U V W X Y Z