Song name
# A B C D E F G H I J K L M N O P Q R S T U V W X Y Z

Savatage - Follow Me tab

standard tuning clean guitar

E-|-----------------1------------------------------------|
B-|-6\-------1-----------1-------------------------------|
G-|---------------------------10------10---10---10-------|
D-|--------------3-------------------------------h-p-----|
A-|-5\-------1----------------8-------7----8----7^8^7----|
E-|---------------------------------------------------8--|
play two times

E-|-----------------1------------------------------------|
B-|-6\-------1-----------1-------------------------------|
G-|----7----------------------10------10---10---10-------|
D-|-------7------3-------------------------------h-p-----|
A-|-5\-------1----------------8-------7----8----7^8^7----|
E-|---------------------------------------------------8--|
I really want to know                 What you had in store

E-|-----------------1------------------------------------|
B-|-6\-------1-----------1-------------------------------|
G-|---------------------------10------10---10---10-------|
D-|--------------3-------------------------------h-p-----|
A-|-5\-------1----------------8-------7----8----7^8^7----|
E-|---------------------------------------------------8--|
I couldn't really tell              Maybe just as well

E-|-----------------1------------------------------------|
B-|-6\-------1-----------1-------------------------------|
G-|----7----------------------10------10---10---10-------|
D-|-------7------3-------------------------------h-p-----|
A-|-5\-------1----------------8-------7----8----7^8^7----|
E-|---------------------------------------------------8--|
Came here with a dream              and I just had to see

E-|-----------------1------------------------5------|
B-|-6\-------1-----------1-------------------6------|
G-|----7----------------------10------10-----7------|
D-|-------7------3---------------------------7------|
A-|-5\-------1----------------8-------7------5------|
E-|-------------------------------------------------|
  If my dreams would soar   I knocked on ev'ry door
Tap to rate this tab
 
# A B C D E F G H I J K L M N O P Q R S T U V W X Y Z