Guitaretab - guitar tabs
Song name
# A B C D E F G H I J K L M N O P Q R S T U V W X Y Z

Savatage - Damien tab

			Savatage  Damien 
[ Tab from: http://www.guitaretab.com/s/savatage/33583.html ]
    Intro & Chorus
e-|--------------------------------------------------------------------------|
B-|----------------------------------------6----5-4-3------------------------|
G-|-------------------------------------3----4-------------------------------|
D-|------------6-5-4----------6-5-4------------------------------------------|
A-|-----------------------------------------------------------5------5-------|
E-|---3--3-3----------3-3-3---------------------------3-3-3-3-3-3------------|
     (x4)	

    Main Riff
e-|---------------------------------------------------------------------|
B-|---------------------------------------------------------------------|
G-|-------------------------7-7-7---------------------------------------|
D-|-------------------------7-7-7---------------------------------------|
A-|---------------------------------------------------------------------|
E-|---3-3-3-3-6-5-4-3-2---------3-3-3-3-6-5-4-2--7-6-7------------------|
     (x2)
Related for Damien tab