Song name
# A B C D E F G H I J K L M N O P Q R S T U V W X Y Z

Save For One - Background Interview tab

                       background interview


e-----------------------------------------------------------------------|
B-----------------------------------------------------------------------|
G-----------------------------------------------------------------------|
D----6--------6-----------9--------7--------6-----------------------11--|
A-------7--------7-----------7--------7--------0-----9--------9----9----|
E-0--------0--------0-----------0--------0--------7-----7--7-----7------|

e---------------------------------------------------------------------|
B---------------------------------------------------------------------|
G---------------------------------------------------------------------|
D-------9--------9--------6--------7--------9--------7--------6-------|
A-9--------9-----------------7--------7--------7--------7--------7----|
E----7--------7-----0--5--------5--------5--------5--------5--------0-|

e---------------------------------------------------------------------|
B---------------------------------------------------------------------|
G---------------------------------------------------------------------|
D-2--------2--------4--------2----------------------------------------|
A----2--------2--------2----------------------------------------------|
E-------0--------0--------0-----0first note---------------------------|

play chords E, B, A, E7fret barre with picking after second time thru
Tap to rate this tab
 
# A B C D E F G H I J K L M N O P Q R S T U V W X Y Z