Save It For Sunrise - Something To Remember tab

-----------------------------------------------------------------------------------
                       Save it for Sunrise - Something to Remember
-----------------------------------------------------------------------------------
Website: http://www.myspace.com/saveitforsunrise

Tabbed by: Steph T.
Email: tevks@yahoo.fr

Tuning: Standard



Verse 1 (hold the spotlight steady...)


Guitar 1

e|---2--------2------------2-------------2----------------|                2
B|------0------------0-------------0--------------0-------|                2
G|---------4------------4-------------4--------------3----| x6 then strum  4
D|--------------------------------------------------------|                4
A|--------------------------------------------------------|                4
E|--------------------------------------------------------|                2

e|-2--------2------------2-------------2-----------------2-------2----------------2|
B|----0------------0-------------0-------------0------------0-----------0---------0|
G|-------4------------4-------------4-------------3-----------4------------4------1|
D|--------------------------------------------------------------------------------2|
A|--------------------------------------------------------------------------------2|
E|--------------------------------------------------------------------------------0|

Guitar 2

e|--x------------x------------x------------x--|
B|--x------------x------------x------------x--|
G|--x------------x------------x------------x--|
D|--6------------2------------4------------2--|
A|--6------------2------------4------------2--|
E|--4------------0------------2------------0--|


Verse 2 (all eyes on you tonight...)


Guitar 1

e|------------------------------------------------------------------|
B|-------0-----------------0----------------0---------------0-------|
G|------------------------------------------------------------------| x2
D|----6-----6----------9------9---------9------9---------9----9-----|
A|------------------------------------------------------------------|
E|-4---------------7-----------------7----------------7-------------|

e|-----------------------------------------------------------------------|
B|----------7---------------0--------0------0-------0-------0--------0---|
G|-------4-----3----3----3--------3------3-------3-------3--------3------| x2
D|----6------------------------------------------------------------------|
A|-----------------------------------------------------------------------|
E|-4---------------------------------------------------------------------|

Guitar 2

e|--x-------x-------x--------x--------x-------x----|
B|--x-------x-------x--------x--------x-------x----|
G|--x-------x-------x--------x--------x------(4)---|
D|--6-------2-------4--------6--------2-------4----|
A|--6-------2-------4--------6--------2-------4----|
E|--4-------0-------2--------4--------0-------2----|


Chorus 1 (so where's your heart at tonight...)


Guitar 1

e|---------------------------------------------------------------------------------|
B|---------------------------------------------------------------------------------|
G|---------------------------------------------------------------------------------| x2
D|--9hold-----9h11---11---h13---8---h9---9hold-----9h11---11---h13---8---h9---9h11-|
A|---------------------------------------------------------------------------------|
E|---------------------------------------------------------------------------------|

Guitar 2

e|--x-------x--------x--------x----|
B|--x-------x--------x--------x----|
G|--x-------x--------x--------x----| x2
D|--2-------6--------9--------4----|
A|--2-------6--------9--------4----|
E|--0-------4--------7--------2----|


Verse 3 (remember the times i held you close...)


Guitar 1

e|--x-------x--------x----|
B|--x-------x--------x----|
G|--x-------x--------x----| x2
D|--6-------2--------4----|
A|--6-------2--------4----|
E|--4-------0--------2----|

Guitar 2 enters (i won't stay to wait around and watch you bleed...)

e|--12-0-11----------------12-0-11------------------------------------|
B|----------0-12-h14----------------0-12-h14-----------4---4-h5---4-0-|
G|------------------11-h13------------------11-h13-------6------6-----|
D|--------------------------------------------------------------------|
A|--------------------------------------------------------------------|
E|--------------------------------------------------------------------|

e|-12-0-11----------------12-0-11-----------------------------------------|
B|---------0-12-h14----------------0-12-h14-------------------14-12-------|
G|-----------------11-h13------------------11-h13----------11-------11 \--|
D|----------------------------------------------------13------------------|
A|-------------------------------------------------14---------------------|
E|------------------------------------------------------------------------|


Chorus 2


Guitar 1

e|---------------------------------------------------------------------------------|
B|---------------------------------------------------------------------------------|
G|---------------------------------------------------------------------------------| x3
D|--9hold-----9h11---11---h13---8---h9---9hold-----9h11---11---h13---8---h9---9h11-|
A|---------------------------------------------------------------------------------|
E|---------------------------------------------------------------------------------|

Guitar 2

e|--x------x-------x-------x---|
B|--x------x-------x-------x---|
G|--x------x-------x-------x---| x3
D|--2------6-------9-------4---|
A|--2------6-------9-------4---|
E|--0------4-------7-------2---|


Outro


Guitar 1

e|--x---x------x---x-------x---x---|
B|--x---x------x---x-------4---4---|
G|--x---x------x---x-------4---4---|
D|--4---4------4---4-------4---4---|
A|--4---4------4---4-------2---2---|
E|--2---2------2---2-------2---2---|

Guitar 2

e|--x---x------x---x------x---x---|
B|--x---x------x---x------x---x---|
G|--4---4------4---4------x---x---|
D|--4---4------4---4------2---2---|
A|--4---4------4---4------2---2---|
E|--2---2------2---2------0---0---|



************************************

| /   slide up
| \   slide down
| h   hammer-on
| p   pull-off
| ~   vibrato
| +   harmonic
| x   Mute note
| b   Bend
| pb  Pre-bend
| br  Bend release
| pbr Pre-bend release
| brb Bend release bend

************************************

Tap to rate this tab
 
# A B C D E F G H I J K L M N O P Q R S T U V W X Y Z