Guitaretab - guitar tabs
Song name
# A B C D E F G H I J K L M N O P Q R S T U V W X Y Z

Saveloy Coop - Onside tab

Saveloy Coop - Onside
Submitted By: mario, andi
EMail: atgboss2@yahoo.de


Normal Tuning EADGBe

Song: On

 Git. 2
Intro(clean)
|------8-----8-9-8-6-8-------8-----8-9-8-6-8--|
|----6---6-9---------------6---6-9------------|
|---------------------------------------------|  2x
|---------------------------------------------|
|---------------------------------------------|
|---------------------------------------------|

Verse
 Git. 1
Riff 1(clean)
|----10---10---11-10-8---8---10-8-6---6---8-6-4---4---6-8-|
|-------8----8---------8---8--------6---6-------4---4-4-6-|
|---------------------------------------------------------|  2x
|---------------------------------------------------------|
|---------------------------------------------------------|
|---------------------------------------------------------|

 Git. 1 
Riff2(clean)
|----10---10---11-10-8---8---10-8-6---6---8-6-4---4---6-8-|
|-------8----8---------8---8--------6---6-------4---4-4-6-|
|---------------------------------------------------------|  2x
|---------------------------------------------------------|
|---------------------------------------------------------|
|---------------------------------------------------------|
|Git. 2
|----10---10---11-10-8---8---10-8-6---6---8-6-4---4---4---|
|------8----8---------8---8--------6---6-------4---4---4--|
|-------8----8---------8---8--------6---6-------4---4---4-|  2x
|---------------------------------------------------------|
|---------------------------------------------------------|
|---------------------------------------------------------|

 Git. 1
Riff3(clean)
|----8---8---10-11-11---11---11-10-8---8---10-11-10-11-8--|
|------8---8----------8----8---------8---8----------------|
|---------------------------------------------------------|
|---------------------------------------------------------|
|---------------------------------------------------------|
|---------------------------------------------------------|

 Git.2
Riff4(clean)
|----10---10---11-10-8---8---10-8-6---6---8-6-4---4---4---|
|------8----8---------8---8--------6---6-------4---4---4--|
|-------8----8---------8---8--------6---6-------4---4---4-|  2x
|---------------------------------------------------------|
|---------------------------------------------------------|
|---------------------------------------------------------|
Chorus 1
 Git. 1
Riff5
|----4---4---6-4-6---6---8-6-8---8---10-8-10-11-10-8--|
|------4---4-------6---6-------8---8------------------|
|-----------------------------------------------------|  2x
|-----------------------------------------------------|
|-----------------------------------------------------|
|-----------------------------------------------------|

 Git. 1
Riff6(clean)
|----6-----------8-----------9-----------------------|
|------6-----------6-----------6---------------------|
|----------------------------------------------------|  4x
|----------------------------------------------------|
|----------------------------------------------------|
|----------------------------------------------------|
|Git. 2          
|----------------------------------------------------|
|----------------------------------------------------|
|----5---5---7-5-7---7---9-7-9---9---11-9-11-12-11-9-|  4x
|------5---5-------7---7-------9---9-----------------|
|----------------------------------------------------|
|----------------------------------------------------|
[ Tab from: http://www.guitaretab.com/s/saveloy-coop/44222.html ]
 Git. 1
Riff5(clean)
|----4---4---6-4-6---6---8-6-8---8---10-8-10-11-10-8--|
|------4---4-------6---6-------8---8------------------|
|-----------------------------------------------------|  2x
|-----------------------------------------------------|
|-----------------------------------------------------|
|-----------------------------------------------------|

Chorus 2
 Git. 1
Riff5(clean)
|----4---4---6-4-6---6---8-6-8---8---10-8-10-11-10-8--|
|------4---4-------6---6-------8---8------------------|
|-----------------------------------------------------|  2x
|-----------------------------------------------------|
|-----------------------------------------------------|
|-----------------------------------------------------|

 Git. 1
Riff6(clean)
|----6-----------8-----------9-----------------------|
|------6-----------6-----------6---------------------|
|----------------------------------------------------|  4x
|----------------------------------------------------|
|----------------------------------------------------|
|----------------------------------------------------|
|Git. 2          
|----------------------------------------------------|
|----------------------------------------------------|
|----5---5---7-5-7---7---9-7-9---9---11-9-11-12-11-9-|  4x
|------5---5-------7---7-------9---9-----------------|
|----------------------------------------------------|
|----------------------------------------------------| Git. 1
Riff7
|----------------------------------------------------|
|----------------------------------------------------|
|----5---5---7-5-7---7---9-7-9---9---11-9-11-12-11-9-|  2x
|------5---5-------7---7-------9---9-----------------|
|----------------------------------------------------|
|----------------------------------------------------|

Bridge
 Git. 2
Riff 8
|------------------------------------------------------|
|------------------------------------------------------|
|----12-1213-12-10-10-12-10-8--8--10-8-6--6--8-6--|  2x
|------10-10-------10-10--------8--8-------6--6------|
|------------------------------------------------------|
|------------------------------------------------------|

Chorus
 Git. 1
Riff5(clean)
|----4---4---6-4-6---6---8-6-8---8---10-8-10-11-10-8--|
|------4---4-------6---6-------8---8------------------|
|-----------------------------------------------------|  2x
|-----------------------------------------------------|
|-----------------------------------------------------|
|-----------------------------------------------------|

 Git. 1
Riff6(clean)
|----6-----------8-----------9-----------------------|
|------6-----------6-----------6---------------------|
|----------------------------------------------------|  4x
|----------------------------------------------------|
|----------------------------------------------------|
|----------------------------------------------------|
|
|----------------------------------------------------|
|----------------------------------------------------|
|----5---5---7-5-7---7---9-7-9---9---11-9-11-12-11-9-|  2x
|------5---5-------7---7-------9---9-----------------|
|----------------------------------------------------|
|----------------------------------------------------|

 Git. 1
Riff 9(clean)
|----10-----------8-------------6-----------------8-6--|
|------------------------------------------------------|
|------------------------------------------------------|
|------------------------------------------------------|
|------------------------------------------------------|
|------------------------------------------------------|
|Git. 2
|------------------------------------------------------|
|------------------------------------------------------|
|----12-1213-12-10-10-12-10-8--8--10-8-6--6--8-6--|  2x
|------10-10-------10-10--------8--8-------6--6------|
|------------------------------------------------------|
|------------------------------------------------------|