Song name
# A B C D E F G H I J K L M N O P Q R S T U V W X Y Z

Saves The Day - When Im Not There tab

Saves The Day
When I'm Not There
Under The Boards
12/10/07
sn.fifty@gmail.com

Eb Tuning

Intro
eb|----1---0-----------------------------|
Bb|--3-------3---------------------------|
Gb|------2---------------bass notes:-----|
Db|0---------------------0---0---7---0---|
Ab|------------x2--x4--------------------|
Eb|--------------------------------------|

Play Dbm chord underneath.


Verse
eb|--------------------------------------|
Bb|--------------------------------------|
Gb|3-3333333-33333333--77777777-77777777-|
Db|5-5555555-33333222--77777777-77777777-|
Ab|--------------------------------------|
Eb|--------------------------------------|
  pm ....... ........  ........ ........

eb|--------------------------------------|
Bb|-bass---------------------------------|
Gb|--------------------------------------|
Db|---------------222--------------------|
Ab|----------33333-----55555555----------|
Eb|-33333333--------------------55555555-|


Repeat Intro and Verse with a little variation, especially bass.

Repeat Intro again with another guitar doing effects.


Bridge
eb|----1-------1-------1-------0---------|
Bb|--3---3---3---3---3---3---3---3-------|
Gb|0-------0------h3-------3-------------|
Db|--------------------------------------|
Ab|--------------------------------------|
Eb|--------------------------------------|

eb|----1-------1-------1-------1---------|
Bb|------3-------3-------3-------3-------|
Gb|--2-------2-------2-------2-----------|
Db|0-------0-------0-------0-------------|
Ab|--------------------------------------|
Eb|--------------------------------------|


Play Verse, add in this:
eb|6-----6-----6---6-----6-----5---------|
Bb|--6-----6-----6---6-----6-----6-------|
Gb|----7-----7---------7-----7-----------|
Db|--------------------------------------|
Ab|--------------------------------------|
Eb|--------------------------------------|

eb|5-----5-----5---5-----5-----5---------|
Bb|--6-----6-----6---6-----6-----6-------|
Gb|----7-----7---------7-----7-----------|
Db|--------------------------------------|
Ab|--------------------------------------|
Eb|--------------------------------------|

Outro with Intro.
Tap to rate this tab
# A B C D E F G H I J K L M N O P Q R S T U V W X Y Z