Guitaretab - guitar tabs
Song name
# A B C D E F G H I J K L M N O P Q R S T U V W X Y Z

Saves The Day - Third Engine tab

-------------------------------------------------------------------------------
			     Third Engine - Saves The Day
-------------------------------------------------------------------------------
Tabbed by: Alex Miskell
Email: shibbyx138@aim.com

Tuning: standard

e|-------------------------------------|
B|-------------------------------------|
G|-------------------------------------|
D|----------77-777-7--55-555-5-555555\4|
A|22-222-2--55-555-5--33-333-3-333333\2|
E|00-000-0-----------------------------|
     P.M       P.M       P.M   P.M

The verses are the same chords in the intro, just a different strumming pattern.
[ Tab from: http://www.guitaretab.com/s/saves-the-day/101796.html ]
Chorus
e|------------------------------------------|
B|------------------------------------------|
G|--------------7/9-7----------7/9-7--------|
D|--------7-x7--x-x-x---5-x7---x-x-x--5-x10-|
A|-5-x10--5-----5/7-5---3------5/7-5--3-----|
E|-3----------------------------------------|


"Everything seemed a little easier..."
e|-------|
B|-------|
G|-------|
D|-5\4---|
A|-3\2-22|
E|-----00|

"I'm still thinking about you"
(with flanger)
e|-3p2-3p2-|
B|----3---3|
G|---------|
D|---------|
A|---------|
E|---------|

End with...
e|--------|
B|--------|
G|--------|
D|-5-4-2--|
A|-3-2-0-5|
E|-------3|


| /  slide up
| \  slide down
| h  hammer-on
| p  pull-off
| ~  vibrato
| +  harmonic
| x  Mute note
===============================================================================
Related for Third Engine tab
Advertisement will be closed in 10 seconds