Song name
# A B C D E F G H I J K L M N O P Q R S T U V W X Y Z

Saves The Day - Blindfolded tab

Hey you guys!

I just wanted to add the intro to the song, here it is :) Hope you find it useful! :)

Saves the day - Blindfolded

Standard tuning

Intro


e-----0------0-------------3-------3--------------------0------0-------------|
B----1---------1----------0----------0-----------------1---------1-----------|
G---2------------2-------0------------0---------------2-----------2----------|
D--2--------------------0----------------------------2-----------------------|
A-o-------0------------x---------------------------0--------0----------------|
E---------------------3---------3--------------------------------------------|

Alternate ending 1 (follows previous intro riff/chords)
e--------------------------------------------|
B--1--1--------------------------------------|
G--2--0---0--0--0----------------------------|
D--3--2---0--2--0----------------------------|
A------------------3-------------------------|
E--------------------------------------------|


e-----0------0-------------3-------3--------------------0------0-------------|
B----1---------1----------0----------0-----------------1---------1-----------|
G---2------------2-------0------------0---------------2-----------2----------|
D--2--------------------0----------------------------2-----------------------|
A-o-------0------------x---------------------------0--------0----------------|
E---------------------3---------3--------------------------------------------|

Alternate ending 2

e------------------------------------------|
B---1--1-----------------------------------|
G---2--0--0--------------------------------|
D---3--2--0--------------------------------|
A------------3-----------------------------|
E------------------------------------------|
Tap to rate this tab
# A B C D E F G H I J K L M N O P Q R S T U V W X Y Z