Song name
# A B C D E F G H I J K L M N O P Q R S T U V W X Y Z

Saves The Day - Third Engine Acoustic tab

-------------------------------------------------------------------------------
			     Third Engine (Acoustic) - Saves the Day
-------------------------------------------------------------------------------
Tabbed by: zildjian215
Email: zildjian215@gmail.com

Tuning: half step down - listen for the strumming

This song is featured on the Bug Sessions Vol. 3 EP. The song on the ep is played by two 
this tab is for all
intents and purposes the ryhtm/basic guitar part. The second guitarist throws in some 
and chord slides but I dont
have those on here. Let me know if there are any major changes that need to be made. Thanks.

Intro
e|-(3)-----------------------------------------------------------------------|
B|--3-3-3-3--3-3-3-3--3-3-3-3--33/5-5-5\3------------------------------------|
G|--0-0-0-0--2-2-0h2--0-0-0-0--00/0-0-0\0------------------------------------|
D|--2-2-0h2--0-0-0-0--0-0-0-0--00/0-0-0\0------------------------------------|
A|--2-2-0h2--0-0-0-0--3-3-0h3--33/5-5-5\3------------------------------------|
E|--0-0-0-0------------------------------------------------------------------|

Verse
e|-(3)-----------------------------------------------------------------------|
B|--3--------3--------3------------------------------------------------------|
G|--0--------2--------0------------------------------------------------------|
D|--2--------0--------0------------------------------------------------------|
A|--2--------0--------3------------------------------------------------------|
E|--0------------------------------------------------------------------------|

Chorus
e|--3------------------------------------------------------------------------|
B|--3--------3--------3------------------------------------------------------|
G|--0--------2--------0------------------------------------------------------|
D|--0--------0--------0------------------------------------------------------|
A|--2--------0--------3------------------------------------------------------|
E|--3------------------------------------------------------------------------|

Bridge
e|-(3)-------3---------------------------------------------------------------|
B|--3--------3--------3-------3----------------------------------------------|
G|--0--------0--------2-------0----------------------------------------------|
D|--2--------0--------0-------0----------------------------------------------|
A|--2--------2--------0-------3----------------------------------------------|
E|--0--------3---------------------------------------------------------------|

Outro
e|-(3)----3~--|
B|--3-3-3-3~--|
G|--0-0-0-0~--|
D|--0-0-0-0~--|
A|--3-2-0-2~--|
E|--------3~--|


Order:
Intro
Verse
Chorus
Verse
Chorus
Bridge
Intro
Chorus
Outro

| /  slide up
| \  slide down
| h  hammer-on
| p  pull-off
| ~  vibrato
| +  harmonic
| x  Mute note
===============================================================================
Tap to rate this tab
 
# A B C D E F G H I J K L M N O P Q R S T U V W X Y Z