Song name
# A B C D E F G H I J K L M N O P Q R S T U V W X Y Z

Saves The Day - Sweeter For The Betrayal tab

----------------------------------------------------------------------------
                  SWEETER FOR THE BETRAYAL - Saves The Day
----------------------------------------------------------------------------
Tabbed by: Erik Steinmeyer
Email: Scrutinizer@gmail.com

Tuning: Standard (Capo: 2nd Fret)

e|--------------------------------------------------------------------------|
B|--------------------------------------------------------------------------|
G|--------------------------------------------------------------------------|
D|--------5---------5-------5-------5-----5---------5-------5-------x3------|
A|----------5-----3---3---3---3---3---3-----5-----3---3---3---3-------------|
E|------3-----3-0-------5-------5-------3-----3-0-------5-------5-----------|

e|--------------------------------------------------------------------------|
B|--------------------------------------------------------------------------|
G|------------------5---xx------5----(5)------------------------------------|
D|--------5-5-5-5-5x5---xx5---xx5---xx5--xx7--xx----------------------------|
A|--------5-5-5-5-5x3---xx5---xx3---xx7--xx7--xx----------------------------|
E|-3--3-3-3-3-3-3-3x------3---xx----xx0--xx5--xx----------------------------|

e|--------------------------------------------------------------------------|
B|--------------------------------------------------------------------------|
G|--------------------------------5-----------------------------------------|
D|--------5---------5-------5-------5-----5---------5-------5---------------|
A|----------5-----3---3---3---3-------3-----5-----3---3---3---3-------------|
E|------3-----3-0-------5-------5-------3-----3-0-------5-------5-----------|

e|--------------------------------------------------------------------------|
B|--------------------------------------------------------------------------|
G|--------------------------------5-----------------------------------------|
D|--------5---------5-------5-------5-----x4--------------------------------|
A|----------5-----3---3---3---3-------3-------------------------------------|
E|------3-----3-0-------5-------5--------------3----------------------------|

| /  slide up
| \  slide down
| h  hammer-on
| p  pull-off
| ~  vibrato
| +  harmonic
| x  Mute note
============================================================================
Tap to rate this tab
# A B C D E F G H I J K L M N O P Q R S T U V W X Y Z