Song name
# A B C D E F G H I J K L M N O P Q R S T U V W X Y Z

Saves The Day - Jukebox Breakdown tab

----------------------------------------------------------------------------
		Jukebox Breakdown - Saves The Day
----------------------------------------------------------------------------
Tabbed by: adslam3
Email:
UG needs this tab. It may not be perfect but it's a start
Tuning: Standard
Intro/Chorus

The strumming isn't exact, but this is pretty close

intro only|                                 | This part isn't played on
          | Chorus                          | 2nd and 4th times, instead
          |                                 | just scrape muted strings
e|--------|---------------------------------|-------------------------------|
B|--------|---------------------------------|-------------------------------|
G|-4------|-4-4-------------------8-8-11-11-|-13-13-13-13-------------------|
D|-4-(8x)-|-4-4-------2-2-4-4-6-6-8-8-11-11-|-13-13-13-13-------------------|
A|-2------|-2-2-4h6h4/2-2-4-4-6-6-6-6-9--9--|-11-11-11-11-------------------|
E|--------|-----------0-0-2-2-4-4-----------|-------------------------------|
  pm

Verse
Guitar 1 - Quick picking here.
e|--------------------------------------------------------------------------|
B|--------------------------------------------------------------------------|
G|--------------------------------------------------------------------------|
D|-9-9-9-9-9-9-9-9--8-8-8-8-8-8-8-8--6-6-6-6-6-6-6-6--4-4-4-4--6-6-6-6------|
A|--------------------------------------------------------------------------|
E|--------------------------------------------------------------------------|

Verse
Guitar 2
e|--------------------------------------------------------------------------|
B|--------------------------------------------------------------------------|
G|--4~----------------------------------------------------------------------|
D|--4~---4~--2~--2~---------------------------------------------------------|
A|--2~---4~--2~--2~---------------------------------------------------------|
E|-------2~--0~--0~---------------------------------------------------------|

Pre-Chorus
e|--------------------------------------------------------------------------|
B|--------------------------------------------------------------------------|
G|--4-4-4-4-----------------------------------------------------------------|
D|--4-4-4-4-4-4-4-4-2-2-2-2-2-2-2-2----(2x)---------------------------------|
A|--2-2-2-2-4-4-4-4-2-2-2-2-2-2-2-2-----------------------------------------|
E|----------2-2-2-2-0-0-0-0-0-0-0-0-----------------------------------------|
Then:
Chorus, Verse, Pre-Chorus, Chorus

Bridge
Part 1 - play two times
e|------------|--------------------------------------------------------------|
B|------------|--------------------------------------------------------------|
G|------------|--------------------------------------------------------------|
D|-4-4-6-6-2~-|-6-6-6-6--4-4-4-4--2-2-2-2--2-2-2-2---------------------------|
A|-4-4-6-6-2~-|-6-6-6-6--4-4-4-4--2-2-2-2--2-2-2-2---------------------------|
E|-2-2-4-4-0~-|-4-4-4-4--2-2-2-2--0-0-0-0--0-0-0-0---------------------------|
                pm---    pm---    pm---    pm--------------------------------|

e|---------------------------------------|-----------------------------------|
B|---------------------------------------|-----------------------------------|
G|---------------------------------------|-----------------------------------|
D|--6-6-6-6--4-4-4-4--2-2-2-2--2-2--4-4--|--2~---4~--------------------------|
A|--6-6-6-6--4-4-4-4--2-2-2-2--2-2--4-4--|--2~---4~--------------------------|
E|--4-4-4-4--2-2-2-2--0-0-0-0--0-0--2-2--|--0~---2~--------------------------|
    pm---    pm---    pm---    pm--------------------------------------------|

Bridge
Part 2
NOTE: You don't play the full riff last time though. Listen for it.
e|-------------------------------------------------------------------|--0~--|
B|-------------------------------------------------------------------|--0~--|
G|----------------------------------9-9-9-9-9-9-9-9------------------|--1~--|
D|-9-9-9-9-9-9-9-9--8-8-8-8-8-8-8-8-----------------6-6-6-6-6-6-6-6--|--2~--|
A|-------------------------------------------------------------------|--2~--|
E|-------------------------------------------------------------------|--0~--|
- It can't quite tell but it sound like an E is the chord played at end
of Bride 2
After Bridge part, go back to chorus until end of song.

End with
e|--------------------------------------------------------------------------|
B|--------------------------------------------------------------------------|
G|--4-----------------------------------------------------------------------|
D|--4-----------------------------------------------------------------------|
A|--2-----------------------------------------------------------------------|
E|--------------------------------------------------------------------------|
That should be about it. I'm missing the second guitar part in the bridge,
but everything else seems pretty close. Hope you enjoy.
Any questions? PM me and i'll clear up confusion.
| /  slide up
| \  slide down
| h  hammer-on
| p  pull-off
| ~  vibrato
| +  harmonic
| x  Mute note
===============================================================================
Tap to rate this tab
 
# A B C D E F G H I J K L M N O P Q R S T U V W X Y Z