Song name
# A B C D E F G H I J K L M N O P Q R S T U V W X Y Z

Saves The Day - End tab

Help us improve GuitareTab! Take a short survey!
The End by Saves The Day, or the greatest band ever!

-------------------------------------------------|
-------------------------------------------------|repeat this a couple
-------------------5-5-5----5-5-5---5------------|times
--7-7-7-7-7-7-7-7--5-5-5-5--5-5-5-5-5-5----------|
--7-7-7-7-7-7-7-7--3-3-3-5--3-3-3-5-3-5----------|
--5-5-5-5-5-5-5-5--------3--------3---3----------|

then play this after the last one
-------------|
-------------|
-------------|
-7--5--3-----|
-7--5--3-----|
-5--3--1-----|

then play this for a while
----9---11~--
-9-----------
-------------
-------------
-------------
-------------

after that there is a <> then it goes like this
-------------------------------------------------------------------|
-------------------------------------------------------------------| do
-----------------5-5-5-5-5-5-5-5-----------------7-7-7-7-7-7-7-7---|  this
-7-7-7-7-7-7-7-7-5-5-5-5-5-5-5-5-3-3-3-3-3-3-3-3-7-7-7-7-7-7-7-7---|   twice
-7-7-7-7-7-7-7-7-3-3-3-3-3-3-3-3-3-3-3-3-3-3-3-3-5-5-5-5-5-5-5-5---|
-5-5-5-5-5-5-5-5-----------------1-1-1-1-1-1-1-1-------------------|

then right here is not quite right at the end, i dunno what he does, so i will just leave it as this
---------------------------------------------------------------------------------|
---------------------------------------------------------------------------------|
-----------------5-5-5-5-5-5-5-5-101010-9-101010-9--7-9--101010-9-101010-9--7--5-|
-7-7-7-7-7-7-7-7-5-5-5-5-5-5-5-5-101010-9-101010-9--7-9--101010-9-101010-9--7--5-|
-7-7-7-7-7-7-7-7-3-3-3-3-3-3-3-3--8-8-8-7--8-8-8-7--5-7---8-8-8-7--8-8-8-7--5--3-|
-5-5-5-5-5-5-5-5-----------------------------------------------------------------|

then i think he hits, then the breakdown
----|----------------------------------|
----|----------------------------------|
--7-|------------------5-5-5-5---------|
--7-|--7-7-7-5-3-3-3-3-5-5-5-5-5-5-5-5-|
--5-|--7-7-7-5-3-3-3-3-3-3-3-3-5-5-5-5-|
----|--5-5-5-3-1-1-1-1---------3-3-3-3-|

then repeat the intro
-------------------------------------------------|
-------------------------------------------------|
-------------------5-5-5----5-5-5---5------------|
--7-7-7-7-7-7-7-7--5-5-5-5--5-5-5-5-5-5----------|
--7-7-7-7-7-7-7-7--3-3-3-5--3-3-3-5-3-5----------|
--5-5-5-5-5-5-5-5--------3--------3---3----------|

do that a couple times then end on
-------------|
-------------|
-------------|
-7--5--3-----|
-7--5--3-----|
-5--3--1-----|

enjoy

-hollywood11
Related for End tab