Song name
# A B C D E F G H I J K L M N O P Q R S T U V W X Y Z

Saves The Day - She tab

Band: Saves The Day
Song: She
Album: In Reverie
Tabed By: Gary

Tuning: Half Step Down


Verse 1               
                    repeat 1x from the line
eb|----------------|---------------------0----------------|
Bb|----3---------0-|---2----0----------3--3---------------|
Gb|------2-----1---|----2---------2----2------------------|
Db|--3-------2-----|----------2----2---x------------------| 2x
Ab|----------------|-0-----------------2------------------|
Eb|----------------|------4-----2-------------------------| 

Verse 2(1x)

eb|-----------------------|-------------------------------| 
Bb|---2----0--------------|----3--------0-----------------|
Gb|----2---------2----1---|------2----1-------------------|
Db|---------2-----2----2--|--3------2---------------------|
Ab|-----------------------|-------------------------------|
eb|-0----4-----2-----0----|-------------------------------|

repeat first verse

 Verse 3
eb|--------------------------------1--------1-------------|
Bb|---2----0------2------2--------2-2------2-2------------|
Gb|----2---------2-2----2-2------2---2----2---2-----------|
Db|----------2--2---2--2---2----3-----3--3----------------|
Ab|-0-----------------------------------------------------|
Eb|------4-----2------2-----------------------------------|

eb|------------------------------------|------------------| 
Bb|------2---------2---------3-------3-|----2--------0----|
Gb|-----4-4-------4-4---------2----2---|------3----1------|
Db|--2-2---2---2-2---2-----3-----3-----|--3------2--------|
Ab|--0---------0-----------------------|------------------|
eb|------------------------------------|------------------|

repeat verse 1 2x

eb|---------------------0----------------|
Bb|---2----0----------3--3---------------|
Gb|----2---------2----2------------------|
Db|----------2----2---x------------------| 2x
Ab|-0-----------------2------------------|
Eb|------4-----2-------------------------|

repeat everything 3 times


Outro

eb|----------------------0------0--------------|
Bb|----4-------0--------4-4----4-4-------------|
Gb|---2-2-----1-1------2---2--2---2------------|
Db|--4---4---0---0----4------4-----------------|
Ab|-2------------------------------------------|
Eb|---------0----------------------------------|
Tap to rate this tab
 
# A B C D E F G H I J K L M N O P Q R S T U V W X Y Z