Song name
# A B C D E F G H I J K L M N O P Q R S T U V W X Y Z

Saves The Day - 34 tab

-------------------------------------------------------------------------------
			     34 - Saves The Day
-------------------------------------------------------------------------------
Tabbed by: Alex Miskell
Email: shibbyx138@aim.com

Tuning: Standard

intro:
e|---------------------------------------------------------------------------|
B|---------------------------------------------------------------------------|
G|---------------------------------------------------------------------------|
D|4-4-4-----2-2-2--2-2-------------------------------------------------------|
A|2-2-2-----0-0-0--0-0--4-4-4--4-4---5-5-5--5-5------------------------------|
E|------2-3-------------2-2-2--2-2---3-3-3--3-3------------------------------|
this is the main riff throughout the song, and is played in the verse.

chorus
e|---------------|
B|---------------|
G|---------------| X 3
D|-4-------------|
A|-2--2--5-------|
E|----0--3--3-2-0|

post chours
e|---------------------------------------------|
B|---------------------------------------------|
G|-4--------6----------------------------------|
D|-6--------7----------------------------------|
A|-6-x6-----7-x6-------------------------------|
E|---------------------------------------------|

verse

chorus

First solo
e|---------------------------------------------------|
B|---------------------------------------------------|
G|---------------------------------------------------|
D|---------------------------------------------------| x 4
A|-------5------------5------------5-----------------|
E|-77777---77--577777---7-5--33333---3-2--000000000--|

Second Solo
e|----------------------------------------------------------------------------7--7--7--|
B|------------------9--------9--9-------------------------------555577778888--10b10b10b|
G|----------777-999-9b-9-7---9b-9-6b----------------0--22224444------------------------|
D|--777-999----------------9--------------------2-4------------------------------------|
A|----------------------------------7b--5-0h2p0----------------------------------------|
E|-------------------------------------------------------------------------------------|

outo
e|-------------|
B|-------------|
G|-444--666---7|
D|-------------|
A|-------------|
E|-------------|




| /  slide up
| \  slide down
| h  hammer-on
| p  pull-off
| ~  vibrato
| +  harmonic
| x  Mute note
===============================================================================
Tap to rate this tab
# A B C D E F G H I J K L M N O P Q R S T U V W X Y Z