Song name
# A B C D E F G H I J K L M N O P Q R S T U V W X Y Z

Saves The Day - Getaway tab

Saves The Day
Getaway
Under The Boards
12/10/07
sn.fifty@gmail.com

Eb Tuning

Verse:
eb|--------------------------------------|
Bb|--------------------------------------|
Gb|--------------------------------------|
Db|------3-3-----------------------------|
Ab|0-0-0-----3-3-3--3-3-3-5-5-6-6-0------|
Eb|--------------------------------------|
 pm. . .     . . .  . . .         .

Pre-Chorus:
eb|--------------------------------------|
Bb|--------------------------------------|
Gb|--------------------------------------|
Db|------3-3-----0x---5-5-5-6-6-7-7x-----|
Ab|0-0-0-----3-3-0x---3-3-3-5-5-6-6x-----|
Eb|--------------0x----------------------|
 pm. . .

Chorus:
eb|--------------------------------------|
Bb|--------------------------------------|
Gb|-3------------------------------------|
Db|-2---3-3---5---6-6---6--7-------------|
Ab|-0---2-2---3---5-5---5--6---x4--x2----|
Eb|--------------------------------------|

Fills:
eb|------------|-------------------------|
Bb|------------|-------------------------|
Gb|-5-5-5b(6)--|-------7-h9p7------------|
Db|------------|--7-10--------10-7-------|
Ab|------------|-------------------------|
Eb|------------|-------------------------|

Bridge: plays verse with pick scratches and stuff

Outro with Chorus.
Tap to rate this tab
# A B C D E F G H I J K L M N O P Q R S T U V W X Y Z